ISO-10303-21;
HEADER;
/* Generated by software containing ST-Developer
 * from STEP Tools, Inc. (www.steptools.com) 
 */

FILE_DESCRIPTION(
/* description */ (''),
/* implementation_level */ '2;1');

FILE_NAME(
/* name */ 'R:\\BE\\Transfert-temporaire\\23369.stp',
/* time_stamp */ '2019-08-26T09:50:29+02:00',
/* author */ ('Michel'),
/* organization */ (''),
/* preprocessor_version */ 'ST-DEVELOPER v17.2',
/* originating_system */ 'Autodesk Inventor 2019',
/* authorisation */ '');

FILE_SCHEMA (('AUTOMOTIVE_DESIGN { 1 0 10303 214 3 1 1 }'));
ENDSEC;

DATA;
#10=MECHANICAL_DESIGN_GEOMETRIC_PRESENTATION_REPRESENTATION('',(#13),#506);
#11=SHAPE_REPRESENTATION_RELATIONSHIP('SRR','None',#513,#12);
#12=ADVANCED_BREP_SHAPE_REPRESENTATION('',(#14),#505);
#13=STYLED_ITEM('',(#522),#14);
#14=MANIFOLD_SOLID_BREP('Solide1',#284);
#15=FACE_BOUND('',#53,.T.);
#16=FACE_BOUND('',#55,.T.);
#17=PLANE('',#307);
#18=PLANE('',#308);
#19=PLANE('',#312);
#20=PLANE('',#316);
#21=PLANE('',#332);
#22=PLANE('',#333);
#23=PLANE('',#334);
#24=FACE_OUTER_BOUND('',#39,.T.);
#25=FACE_OUTER_BOUND('',#40,.T.);
#26=FACE_OUTER_BOUND('',#41,.T.);
#27=FACE_OUTER_BOUND('',#42,.T.);
#28=FACE_OUTER_BOUND('',#43,.T.);
#29=FACE_OUTER_BOUND('',#44,.T.);
#30=FACE_OUTER_BOUND('',#45,.T.);
#31=FACE_OUTER_BOUND('',#46,.T.);
#32=FACE_OUTER_BOUND('',#47,.T.);
#33=FACE_OUTER_BOUND('',#48,.T.);
#34=FACE_OUTER_BOUND('',#49,.T.);
#35=FACE_OUTER_BOUND('',#50,.T.);
#36=FACE_OUTER_BOUND('',#51,.T.);
#37=FACE_OUTER_BOUND('',#52,.T.);
#38=FACE_OUTER_BOUND('',#54,.T.);
#39=EDGE_LOOP('',(#183,#184,#185,#186));
#40=EDGE_LOOP('',(#187,#188,#189,#190));
#41=EDGE_LOOP('',(#191,#192,#193,#194));
#42=EDGE_LOOP('',(#195,#196,#197,#198));
#43=EDGE_LOOP('',(#199,#200,#201,#202));
#44=EDGE_LOOP('',(#203,#204,#205,#206));
#45=EDGE_LOOP('',(#207,#208,#209,#210));
#46=EDGE_LOOP('',(#211,#212,#213,#214));
#47=EDGE_LOOP('',(#215,#216,#217,#218));
#48=EDGE_LOOP('',(#219,#220,#221,#222));
#49=EDGE_LOOP('',(#223,#224,#225,#226));
#50=EDGE_LOOP('',(#227,#228,#229,#230));
#51=EDGE_LOOP('',(#231,#232,#233,#234));
#52=EDGE_LOOP('',(#235,#236,#237,#238,#239,#240,#241,#242,#243,#244));
#53=EDGE_LOOP('',(#245,#246,#247));
#54=EDGE_LOOP('',(#248,#249,#250,#251,#252,#253,#254,#255,#256,#257));
#55=EDGE_LOOP('',(#258,#259,#260));
#56=LINE('',#428,#79);
#57=LINE('',#431,#80);
#58=LINE('',#434,#81);
#59=LINE('',#436,#82);
#60=LINE('',#437,#83);
#61=LINE('',#439,#84);
#62=LINE('',#440,#85);
#63=LINE('',#446,#86);
#64=LINE('',#449,#87);
#65=LINE('',#452,#88);
#66=LINE('',#454,#89);
#67=LINE('',#455,#90);
#68=LINE('',#461,#91);
#69=LINE('',#464,#92);
#70=LINE('',#466,#93);
#71=LINE('',#467,#94);
#72=LINE('',#473,#95);
#73=LINE('',#479,#96);
#74=LINE('',#485,#97);
#75=LINE('',#491,#98);
#76=LINE('',#497,#99);
#77=LINE('',#499,#100);
#78=LINE('',#500,#101);
#79=VECTOR('',#341,10.);
#80=VECTOR('',#344,10.);
#81=VECTOR('',#347,10.);
#82=VECTOR('',#348,10.);
#83=VECTOR('',#349,10.);
#84=VECTOR('',#352,10.);
#85=VECTOR('',#353,10.);
#86=VECTOR('',#358,10.);
#87=VECTOR('',#361,10.);
#88=VECTOR('',#364,10.);
#89=VECTOR('',#365,10.);
#90=VECTOR('',#366,10.);
#91=VECTOR('',#373,10.);
#92=VECTOR('',#376,10.);
#93=VECTOR('',#377,10.);
#94=VECTOR('',#378,10.);
#95=VECTOR('',#385,10.);
#96=VECTOR('',#392,10.);
#97=VECTOR('',#399,10.);
#98=VECTOR('',#406,10.);
#99=VECTOR('',#413,10.);
#100=VECTOR('',#416,10.);
#101=VECTOR('',#417,10.);
#102=CIRCLE('',#305,1.2);
#103=CIRCLE('',#306,1.2);
#104=CIRCLE('',#310,0.3);
#105=CIRCLE('',#311,0.3);
#106=CIRCLE('',#314,1.2);
#107=CIRCLE('',#315,1.2);
#108=CIRCLE('',#318,10.);
#109=CIRCLE('',#319,10.);
#110=CIRCLE('',#321,0.15);
#111=CIRCLE('',#322,0.15);
#112=CIRCLE('',#324,10.);
#113=CIRCLE('',#325,10.);
#114=CIRCLE('',#327,0.15);
#115=CIRCLE('',#328,0.15);
#116=CIRCLE('',#330,10.);
#117=CIRCLE('',#331,10.);
#118=VERTEX_POINT('',#424);
#119=VERTEX_POINT('',#425);
#120=VERTEX_POINT('',#427);
#121=VERTEX_POINT('',#429);
#122=VERTEX_POINT('',#433);
#123=VERTEX_POINT('',#435);
#124=VERTEX_POINT('',#442);
#125=VERTEX_POINT('',#443);
#126=VERTEX_POINT('',#445);
#127=VERTEX_POINT('',#447);
#128=VERTEX_POINT('',#451);
#129=VERTEX_POINT('',#453);
#130=VERTEX_POINT('',#457);
#131=VERTEX_POINT('',#459);
#132=VERTEX_POINT('',#463);
#133=VERTEX_POINT('',#465);
#134=VERTEX_POINT('',#469);
#135=VERTEX_POINT('',#471);
#136=VERTEX_POINT('',#475);
#137=VERTEX_POINT('',#477);
#138=VERTEX_POINT('',#481);
#139=VERTEX_POINT('',#483);
#140=VERTEX_POINT('',#487);
#141=VERTEX_POINT('',#489);
#142=VERTEX_POINT('',#493);
#143=VERTEX_POINT('',#495);
#144=EDGE_CURVE('',#118,#119,#102,.T.);
#145=EDGE_CURVE('',#118,#120,#56,.T.);
#146=EDGE_CURVE('',#121,#120,#103,.T.);
#147=EDGE_CURVE('',#119,#121,#57,.T.);
#148=EDGE_CURVE('',#122,#118,#58,.T.);
#149=EDGE_CURVE('',#122,#123,#59,.T.);
#150=EDGE_CURVE('',#120,#123,#60,.T.);
#151=EDGE_CURVE('',#119,#122,#61,.T.);
#152=EDGE_CURVE('',#123,#121,#62,.T.);
#153=EDGE_CURVE('',#124,#125,#104,.T.);
#154=EDGE_CURVE('',#124,#126,#63,.T.);
#155=EDGE_CURVE('',#127,#126,#105,.T.);
#156=EDGE_CURVE('',#125,#127,#64,.T.);
#157=EDGE_CURVE('',#125,#128,#65,.T.);
#158=EDGE_CURVE('',#129,#127,#66,.T.);
#159=EDGE_CURVE('',#128,#129,#67,.T.);
#160=EDGE_CURVE('',#128,#130,#106,.T.);
#161=EDGE_CURVE('',#131,#129,#107,.T.);
#162=EDGE_CURVE('',#130,#131,#68,.T.);
#163=EDGE_CURVE('',#130,#132,#69,.T.);
#164=EDGE_CURVE('',#133,#131,#70,.T.);
#165=EDGE_CURVE('',#132,#133,#71,.T.);
#166=EDGE_CURVE('',#132,#134,#108,.T.);
#167=EDGE_CURVE('',#135,#133,#109,.T.);
#168=EDGE_CURVE('',#134,#135,#72,.T.);
#169=EDGE_CURVE('',#134,#136,#110,.T.);
#170=EDGE_CURVE('',#137,#135,#111,.T.);
#171=EDGE_CURVE('',#136,#137,#73,.T.);
#172=EDGE_CURVE('',#136,#138,#112,.T.);
#173=EDGE_CURVE('',#139,#137,#113,.T.);
#174=EDGE_CURVE('',#138,#139,#74,.T.);
#175=EDGE_CURVE('',#138,#140,#114,.T.);
#176=EDGE_CURVE('',#141,#139,#115,.T.);
#177=EDGE_CURVE('',#140,#141,#75,.T.);
#178=EDGE_CURVE('',#140,#142,#116,.T.);
#179=EDGE_CURVE('',#143,#141,#117,.T.);
#180=EDGE_CURVE('',#142,#143,#76,.T.);
#181=EDGE_CURVE('',#142,#124,#77,.T.);
#182=EDGE_CURVE('',#126,#143,#78,.T.);
#183=ORIENTED_EDGE('',*,*,#144,.F.);
#184=ORIENTED_EDGE('',*,*,#145,.T.);
#185=ORIENTED_EDGE('',*,*,#146,.F.);
#186=ORIENTED_EDGE('',*,*,#147,.F.);
#187=ORIENTED_EDGE('',*,*,#148,.F.);
#188=ORIENTED_EDGE('',*,*,#149,.T.);
#189=ORIENTED_EDGE('',*,*,#150,.F.);
#190=ORIENTED_EDGE('',*,*,#145,.F.);
#191=ORIENTED_EDGE('',*,*,#151,.F.);
#192=ORIENTED_EDGE('',*,*,#147,.T.);
#193=ORIENTED_EDGE('',*,*,#152,.F.);
#194=ORIENTED_EDGE('',*,*,#149,.F.);
#195=ORIENTED_EDGE('',*,*,#153,.F.);
#196=ORIENTED_EDGE('',*,*,#154,.T.);
#197=ORIENTED_EDGE('',*,*,#155,.F.);
#198=ORIENTED_EDGE('',*,*,#156,.F.);
#199=ORIENTED_EDGE('',*,*,#157,.F.);
#200=ORIENTED_EDGE('',*,*,#156,.T.);
#201=ORIENTED_EDGE('',*,*,#158,.F.);
#202=ORIENTED_EDGE('',*,*,#159,.F.);
#203=ORIENTED_EDGE('',*,*,#160,.F.);
#204=ORIENTED_EDGE('',*,*,#159,.T.);
#205=ORIENTED_EDGE('',*,*,#161,.F.);
#206=ORIENTED_EDGE('',*,*,#162,.F.);
#207=ORIENTED_EDGE('',*,*,#163,.F.);
#208=ORIENTED_EDGE('',*,*,#162,.T.);
#209=ORIENTED_EDGE('',*,*,#164,.F.);
#210=ORIENTED_EDGE('',*,*,#165,.F.);
#211=ORIENTED_EDGE('',*,*,#166,.F.);
#212=ORIENTED_EDGE('',*,*,#165,.T.);
#213=ORIENTED_EDGE('',*,*,#167,.F.);
#214=ORIENTED_EDGE('',*,*,#168,.F.);
#215=ORIENTED_EDGE('',*,*,#169,.F.);
#216=ORIENTED_EDGE('',*,*,#168,.T.);
#217=ORIENTED_EDGE('',*,*,#170,.F.);
#218=ORIENTED_EDGE('',*,*,#171,.F.);
#219=ORIENTED_EDGE('',*,*,#172,.F.);
#220=ORIENTED_EDGE('',*,*,#171,.T.);
#221=ORIENTED_EDGE('',*,*,#173,.F.);
#222=ORIENTED_EDGE('',*,*,#174,.F.);
#223=ORIENTED_EDGE('',*,*,#175,.F.);
#224=ORIENTED_EDGE('',*,*,#174,.T.);
#225=ORIENTED_EDGE('',*,*,#176,.F.);
#226=ORIENTED_EDGE('',*,*,#177,.F.);
#227=ORIENTED_EDGE('',*,*,#178,.F.);
#228=ORIENTED_EDGE('',*,*,#177,.T.);
#229=ORIENTED_EDGE('',*,*,#179,.F.);
#230=ORIENTED_EDGE('',*,*,#180,.F.);
#231=ORIENTED_EDGE('',*,*,#181,.F.);
#232=ORIENTED_EDGE('',*,*,#180,.T.);
#233=ORIENTED_EDGE('',*,*,#182,.F.);
#234=ORIENTED_EDGE('',*,*,#154,.F.);
#235=ORIENTED_EDGE('',*,*,#181,.T.);
#236=ORIENTED_EDGE('',*,*,#153,.T.);
#237=ORIENTED_EDGE('',*,*,#157,.T.);
#238=ORIENTED_EDGE('',*,*,#160,.T.);
#239=ORIENTED_EDGE('',*,*,#163,.T.);
#240=ORIENTED_EDGE('',*,*,#166,.T.);
#241=ORIENTED_EDGE('',*,*,#169,.T.);
#242=ORIENTED_EDGE('',*,*,#172,.T.);
#243=ORIENTED_EDGE('',*,*,#175,.T.);
#244=ORIENTED_EDGE('',*,*,#178,.T.);
#245=ORIENTED_EDGE('',*,*,#144,.T.);
#246=ORIENTED_EDGE('',*,*,#151,.T.);
#247=ORIENTED_EDGE('',*,*,#148,.T.);
#248=ORIENTED_EDGE('',*,*,#182,.T.);
#249=ORIENTED_EDGE('',*,*,#179,.T.);
#250=ORIENTED_EDGE('',*,*,#176,.T.);
#251=ORIENTED_EDGE('',*,*,#173,.T.);
#252=ORIENTED_EDGE('',*,*,#170,.T.);
#253=ORIENTED_EDGE('',*,*,#167,.T.);
#254=ORIENTED_EDGE('',*,*,#164,.T.);
#255=ORIENTED_EDGE('',*,*,#161,.T.);
#256=ORIENTED_EDGE('',*,*,#158,.T.);
#257=ORIENTED_EDGE('',*,*,#155,.T.);
#258=ORIENTED_EDGE('',*,*,#146,.T.);
#259=ORIENTED_EDGE('',*,*,#150,.T.);
#260=ORIENTED_EDGE('',*,*,#152,.T.);
#261=CYLINDRICAL_SURFACE('',#304,1.2);
#262=CYLINDRICAL_SURFACE('',#309,0.3);
#263=CYLINDRICAL_SURFACE('',#313,1.2);
#264=CYLINDRICAL_SURFACE('',#317,10.);
#265=CYLINDRICAL_SURFACE('',#320,0.15);
#266=CYLINDRICAL_SURFACE('',#323,10.);
#267=CYLINDRICAL_SURFACE('',#326,0.15);
#268=CYLINDRICAL_SURFACE('',#329,10.);
#269=ADVANCED_FACE('',(#24),#261,.T.);
#270=ADVANCED_FACE('',(#25),#17,.F.);
#271=ADVANCED_FACE('',(#26),#18,.F.);
#272=ADVANCED_FACE('',(#27),#262,.T.);
#273=ADVANCED_FACE('',(#28),#19,.T.);
#274=ADVANCED_FACE('',(#29),#263,.T.);
#275=ADVANCED_FACE('',(#30),#20,.T.);
#276=ADVANCED_FACE('',(#31),#264,.T.);
#277=ADVANCED_FACE('',(#32),#265,.T.);
#278=ADVANCED_FACE('',(#33),#266,.T.);
#279=ADVANCED_FACE('',(#34),#267,.T.);
#280=ADVANCED_FACE('',(#35),#268,.T.);
#281=ADVANCED_FACE('',(#36),#21,.T.);
#282=ADVANCED_FACE('',(#37,#15),#22,.F.);
#283=ADVANCED_FACE('',(#38,#16),#23,.T.);
#284=CLOSED_SHELL('',(#269,#270,#271,#272,#273,#274,#275,#276,#277,#278,
#279,#280,#281,#282,#283));
#285=DERIVED_UNIT_ELEMENT(#287,1.);
#286=DERIVED_UNIT_ELEMENT(#508,3.);
#287=(
MASS_UNIT()
NAMED_UNIT(*)
SI_UNIT($,.GRAM.)
);
#288=DERIVED_UNIT((#285,#286));
#289=MEASURE_REPRESENTATION_ITEM('density measure',
POSITIVE_RATIO_MEASURE(1.25),#288);
#290=PROPERTY_DEFINITION_REPRESENTATION(#295,#292);
#291=PROPERTY_DEFINITION_REPRESENTATION(#296,#293);
#292=REPRESENTATION('material name',(#294),#505);
#293=REPRESENTATION('density',(#289),#505);
#294=DESCRIPTIVE_REPRESENTATION_ITEM('Caoutchouc, silicone',
'Caoutchouc, silicone');
#295=PROPERTY_DEFINITION('material property','material name',#515);
#296=PROPERTY_DEFINITION('material property','density of part',#515);
#297=DATE_TIME_ROLE('creation_date');
#298=APPLIED_DATE_AND_TIME_ASSIGNMENT(#299,#297,(#515));
#299=DATE_AND_TIME(#300,#301);
#300=CALENDAR_DATE(2014,18,6);
#301=LOCAL_TIME(8,30,7.,#302);
#302=COORDINATED_UNIVERSAL_TIME_OFFSET(0,0,.BEHIND.);
#303=AXIS2_PLACEMENT_3D('placement',#422,#335,#336);
#304=AXIS2_PLACEMENT_3D('',#423,#337,#338);
#305=AXIS2_PLACEMENT_3D('',#426,#339,#340);
#306=AXIS2_PLACEMENT_3D('',#430,#342,#343);
#307=AXIS2_PLACEMENT_3D('',#432,#345,#346);
#308=AXIS2_PLACEMENT_3D('',#438,#350,#351);
#309=AXIS2_PLACEMENT_3D('',#441,#354,#355);
#310=AXIS2_PLACEMENT_3D('',#444,#356,#357);
#311=AXIS2_PLACEMENT_3D('',#448,#359,#360);
#312=AXIS2_PLACEMENT_3D('',#450,#362,#363);
#313=AXIS2_PLACEMENT_3D('',#456,#367,#368);
#314=AXIS2_PLACEMENT_3D('',#458,#369,#370);
#315=AXIS2_PLACEMENT_3D('',#460,#371,#372);
#316=AXIS2_PLACEMENT_3D('',#462,#374,#375);
#317=AXIS2_PLACEMENT_3D('',#468,#379,#380);
#318=AXIS2_PLACEMENT_3D('',#470,#381,#382);
#319=AXIS2_PLACEMENT_3D('',#472,#383,#384);
#320=AXIS2_PLACEMENT_3D('',#474,#386,#387);
#321=AXIS2_PLACEMENT_3D('',#476,#388,#389);
#322=AXIS2_PLACEMENT_3D('',#478,#390,#391);
#323=AXIS2_PLACEMENT_3D('',#480,#393,#394);
#324=AXIS2_PLACEMENT_3D('',#482,#395,#396);
#325=AXIS2_PLACEMENT_3D('',#484,#397,#398);
#326=AXIS2_PLACEMENT_3D('',#486,#400,#401);
#327=AXIS2_PLACEMENT_3D('',#488,#402,#403);
#328=AXIS2_PLACEMENT_3D('',#490,#404,#405);
#329=AXIS2_PLACEMENT_3D('',#492,#407,#408);
#330=AXIS2_PLACEMENT_3D('',#494,#409,#410);
#331=AXIS2_PLACEMENT_3D('',#496,#411,#412);
#332=AXIS2_PLACEMENT_3D('',#498,#414,#415);
#333=AXIS2_PLACEMENT_3D('',#501,#418,#419);
#334=AXIS2_PLACEMENT_3D('',#502,#420,#421);
#335=DIRECTION('axis',(0.,0.,1.));
#336=DIRECTION('refdir',(1.,0.,0.));
#337=DIRECTION('center_axis',(0.,1.,0.));
#338=DIRECTION('ref_axis',(-0.0592008227905942,0.,0.99824609319592));
#339=DIRECTION('center_axis',(0.,-1.,0.));
#340=DIRECTION('ref_axis',(-0.0592008227905942,0.,0.99824609319592));
#341=DIRECTION('',(0.,1.,0.));
#342=DIRECTION('center_axis',(0.,1.,0.));
#343=DIRECTION('ref_axis',(-0.0592008227905942,0.,0.99824609319592));
#344=DIRECTION('',(0.,1.,0.));
#345=DIRECTION('center_axis',(-1.,0.,-2.69856001516164E-17));
#346=DIRECTION('ref_axis',(-2.69856001516164E-17,0.,1.));
#347=DIRECTION('',(-2.69856001516164E-17,0.,1.));
#348=DIRECTION('',(0.,1.,0.));
#349=DIRECTION('',(2.69856001516164E-17,0.,-1.));
#350=DIRECTION('center_axis',(0.84534209461865,0.,-0.534225367299002));
#351=DIRECTION('ref_axis',(-0.534225367299002,0.,-0.84534209461865));
#352=DIRECTION('',(-0.534225367299002,0.,-0.84534209461865));
#353=DIRECTION('',(0.534225367299002,0.,0.84534209461865));
#354=DIRECTION('center_axis',(0.,1.,0.));
#355=DIRECTION('ref_axis',(-0.84534209461865,0.,0.534225367299002));
#356=DIRECTION('center_axis',(0.,-1.,0.));
#357=DIRECTION('ref_axis',(-0.84534209461865,0.,0.534225367299002));
#358=DIRECTION('',(0.,1.,0.));
#359=DIRECTION('center_axis',(0.,1.,0.));
#360=DIRECTION('ref_axis',(-0.84534209461865,0.,0.534225367299002));
#361=DIRECTION('',(0.,1.,0.));
#362=DIRECTION('center_axis',(0.84534209461865,0.,-0.534225367299002));
#363=DIRECTION('ref_axis',(-0.534225367299002,0.,-0.84534209461865));
#364=DIRECTION('',(0.534225367299002,0.,0.84534209461865));
#365=DIRECTION('',(-0.534225367299002,0.,-0.84534209461865));
#366=DIRECTION('',(0.,1.,0.));
#367=DIRECTION('center_axis',(0.,1.,0.));
#368=DIRECTION('ref_axis',(0.916666666666667,0.,-0.399652626942726));
#369=DIRECTION('center_axis',(0.,-1.,0.));
#370=DIRECTION('ref_axis',(0.916666666666667,0.,-0.399652626942726));
#371=DIRECTION('center_axis',(0.,1.,0.));
#372=DIRECTION('ref_axis',(0.916666666666667,0.,-0.399652626942726));
#373=DIRECTION('',(0.,1.,0.));
#374=DIRECTION('center_axis',(1.,0.,-7.9652207188079E-17));
#375=DIRECTION('ref_axis',(-7.9652207188079E-17,0.,-1.));
#376=DIRECTION('',(7.9652207188079E-17,0.,1.));
#377=DIRECTION('',(-7.9652207188079E-17,0.,-1.));
#378=DIRECTION('',(0.,1.,0.));
#379=DIRECTION('center_axis',(0.,1.,0.));
#380=DIRECTION('ref_axis',(0.00628938729959644,0.,0.999980221608105));
#381=DIRECTION('center_axis',(0.,-1.,0.));
#382=DIRECTION('ref_axis',(0.00628938729959644,0.,0.999980221608105));
#383=DIRECTION('center_axis',(0.,1.,0.));
#384=DIRECTION('ref_axis',(0.00628938729959644,0.,0.999980221608105));
#385=DIRECTION('',(0.,1.,0.));
#386=DIRECTION('center_axis',(0.,1.,0.));
#387=DIRECTION('ref_axis',(-0.513903600497567,0.,-0.857847940718888));
#388=DIRECTION('center_axis',(0.,-1.,0.));
#389=DIRECTION('ref_axis',(-0.513903600497567,0.,-0.857847940718888));
#390=DIRECTION('center_axis',(0.,1.,0.));
#391=DIRECTION('ref_axis',(-0.513903600497567,0.,-0.857847940718888));
#392=DIRECTION('',(0.,1.,0.));
#393=DIRECTION('center_axis',(0.,1.,0.));
#394=DIRECTION('ref_axis',(-0.00628938729959685,0.,-0.999980221608105));
#395=DIRECTION('center_axis',(0.,-1.,0.));
#396=DIRECTION('ref_axis',(-0.00628938729959685,0.,-0.999980221608105));
#397=DIRECTION('center_axis',(0.,1.,0.));
#398=DIRECTION('ref_axis',(-0.00628938729959685,0.,-0.999980221608105));
#399=DIRECTION('',(0.,1.,0.));
#400=DIRECTION('center_axis',(0.,1.,0.));
#401=DIRECTION('ref_axis',(0.513903600497568,0.,0.857847940718888));
#402=DIRECTION('center_axis',(0.,-1.,0.));
#403=DIRECTION('ref_axis',(0.513903600497568,0.,0.857847940718888));
#404=DIRECTION('center_axis',(0.,1.,0.));
#405=DIRECTION('ref_axis',(0.513903600497568,0.,0.857847940718888));
#406=DIRECTION('',(0.,1.,0.));
#407=DIRECTION('center_axis',(0.,1.,0.));
#408=DIRECTION('ref_axis',(0.391195046490103,0.,0.920307793948094));
#409=DIRECTION('center_axis',(0.,-1.,0.));
#410=DIRECTION('ref_axis',(0.391195046490103,0.,0.920307793948094));
#411=DIRECTION('center_axis',(0.,1.,0.));
#412=DIRECTION('ref_axis',(0.391195046490103,0.,0.920307793948094));
#413=DIRECTION('',(0.,1.,0.));
#414=DIRECTION('center_axis',(-1.,0.,1.32835022950447E-16));
#415=DIRECTION('ref_axis',(1.32835022950447E-16,0.,1.));
#416=DIRECTION('',(-1.32835022950447E-16,0.,-1.));
#417=DIRECTION('',(1.32835022950447E-16,0.,1.));
#418=DIRECTION('center_axis',(0.,1.,0.));
#419=DIRECTION('ref_axis',(0.,0.,1.));
#420=DIRECTION('center_axis',(0.,1.,0.));
#421=DIRECTION('ref_axis',(0.,0.,1.));
#422=CARTESIAN_POINT('',(0.,0.,0.));
#423=CARTESIAN_POINT('Origin',(1.7,0.,4.2));
#424=CARTESIAN_POINT('',(0.6,0.,3.72041684766873));
#425=CARTESIAN_POINT('',(1.77104098734871,0.,3.0021046881649));
#426=CARTESIAN_POINT('Origin',(1.7,0.,4.2));
#427=CARTESIAN_POINT('',(0.6,1319.,3.72041684766873));
#428=CARTESIAN_POINT('',(0.6,0.,3.72041684766873));
#429=CARTESIAN_POINT('',(1.77104098734871,1319.,3.0021046881649));
#430=CARTESIAN_POINT('Origin',(1.7,1319.,4.2));
#431=CARTESIAN_POINT('',(1.77104098734871,0.,3.0021046881649));
#432=CARTESIAN_POINT('Origin',(0.6,0.,1.14908477985419));
#433=CARTESIAN_POINT('',(0.6,0.,1.14908477985419));
#434=CARTESIAN_POINT('',(0.6,0.,3.28834361217121));
#435=CARTESIAN_POINT('',(0.6,1319.,1.14908477985419));
#436=CARTESIAN_POINT('',(0.6,0.,1.14908477985419));
#437=CARTESIAN_POINT('',(0.6,1319.,3.28834361217121));
#438=CARTESIAN_POINT('Origin',(1.77104098734871,0.,3.0021046881649));
#439=CARTESIAN_POINT('',(2.20377840680614,0.,3.6868553177232));
#440=CARTESIAN_POINT('',(2.20377840680614,1319.,3.6868553177232));
#441=CARTESIAN_POINT('Origin',(0.3,0.,0.3));
#442=CARTESIAN_POINT('',(3.46944695195361E-17,0.,0.3));
#443=CARTESIAN_POINT('',(0.553602628385595,0.,0.139732389810299));
#444=CARTESIAN_POINT('Origin',(0.3,0.,0.3));
#445=CARTESIAN_POINT('',(3.46944695195361E-17,1319.,0.3));
#446=CARTESIAN_POINT('',(3.46944695195361E-17,0.,0.3));
#447=CARTESIAN_POINT('',(0.553602628385595,1319.,0.1397323898103));
#448=CARTESIAN_POINT('Origin',(0.3,1319.,0.3));
#449=CARTESIAN_POINT('',(0.553602628385595,0.,0.139732389810299));
#450=CARTESIAN_POINT('Origin',(2.71441051354238,0.,3.5589295592412));
#451=CARTESIAN_POINT('',(2.71441051354238,0.,3.5589295592412));
#452=CARTESIAN_POINT('',(0.553602628385595,0.,0.139732389810299));
#453=CARTESIAN_POINT('',(2.71441051354238,1319.,3.5589295592412));
#454=CARTESIAN_POINT('',(0.553602628385595,1319.,0.139732389810299));
#455=CARTESIAN_POINT('',(2.71441051354238,0.,3.5589295592412));
#456=CARTESIAN_POINT('Origin',(1.7,0.,4.2));
#457=CARTESIAN_POINT('',(0.6,0.,4.67958315233127));
#458=CARTESIAN_POINT('Origin',(1.7,0.,4.2));
#459=CARTESIAN_POINT('',(0.6,1319.,4.67958315233127));
#460=CARTESIAN_POINT('Origin',(1.7,1319.,4.2));
#461=CARTESIAN_POINT('',(0.6,0.,4.67958315233127));
#462=CARTESIAN_POINT('Origin',(0.600000000000001,0.,8.16417907195105));
#463=CARTESIAN_POINT('',(0.600000000000001,0.,8.16417907195105));
#464=CARTESIAN_POINT('',(0.6,0.,4.67958315233127));
#465=CARTESIAN_POINT('',(0.600000000000001,1319.,8.16417907195105));
#466=CARTESIAN_POINT('',(0.6,1319.,4.67958315233127));
#467=CARTESIAN_POINT('',(0.600000000000001,0.,8.16417907195105));
#468=CARTESIAN_POINT('Origin',(3.91195046490103,0.,17.5998022160811));
#469=CARTESIAN_POINT('',(3.84905659190506,0.,7.6));
#470=CARTESIAN_POINT('Origin',(3.91195046490103,0.,17.5998022160811));
#471=CARTESIAN_POINT('',(3.84905659190506,1319.,7.6));
#472=CARTESIAN_POINT('Origin',(3.91195046490103,1319.,17.5998022160811));
#473=CARTESIAN_POINT('',(3.84905659190506,0.,7.6));
#474=CARTESIAN_POINT('Origin',(3.85,0.,7.74999703324121));
#475=CARTESIAN_POINT('',(3.92708554007464,0.,7.87867422434905));
#476=CARTESIAN_POINT('Origin',(3.85,0.,7.74999703324121));
#477=CARTESIAN_POINT('',(3.92708554007464,1319.,7.87867422434905));
#478=CARTESIAN_POINT('Origin',(3.85,1319.,7.74999703324121));
#479=CARTESIAN_POINT('',(3.92708554007464,0.,7.87867422434905));
#480=CARTESIAN_POINT('Origin',(-1.21195046490103,0.,-0.699805182839838));
#481=CARTESIAN_POINT('',(-1.14905659190506,0.,9.29999703324122));
#482=CARTESIAN_POINT('Origin',(-1.21195046490103,0.,-0.699805182839838));
#483=CARTESIAN_POINT('',(-1.14905659190506,1319.,9.29999703324122));
#484=CARTESIAN_POINT('Origin',(-1.21195046490103,1319.,-0.699805182839838));
#485=CARTESIAN_POINT('',(-1.14905659190506,0.,9.29999703324122));
#486=CARTESIAN_POINT('Origin',(-1.15,0.,9.15));
#487=CARTESIAN_POINT('',(-1.22708554007463,0.,9.02132280889217));
#488=CARTESIAN_POINT('Origin',(-1.15,0.,9.15));
#489=CARTESIAN_POINT('',(-1.22708554007463,1319.,9.02132280889217));
#490=CARTESIAN_POINT('Origin',(-1.15,1319.,9.15));
#491=CARTESIAN_POINT('',(-1.22708554007463,0.,9.02132280889217));
#492=CARTESIAN_POINT('Origin',(3.91195046490103,0.,17.5998022160811));
#493=CARTESIAN_POINT('',(1.11022302462516E-15,0.,8.39672427660012));
#494=CARTESIAN_POINT('Origin',(3.91195046490103,0.,17.5998022160811));
#495=CARTESIAN_POINT('',(1.11022302462516E-15,1319.,8.39672427660012));
#496=CARTESIAN_POINT('Origin',(3.91195046490103,1319.,17.5998022160811));
#497=CARTESIAN_POINT('',(1.11022302462516E-15,0.,8.39672427660012));
#498=CARTESIAN_POINT('Origin',(3.4694469519536E-17,0.,0.3));
#499=CARTESIAN_POINT('',(1.11022302462516E-15,0.,8.39672427660012));
#500=CARTESIAN_POINT('',(1.11022302462516E-15,1319.,8.39672427660012));
#501=CARTESIAN_POINT('Origin',(0.965538846319684,0.,5.42760244448824));
#502=CARTESIAN_POINT('Origin',(0.965538846319684,1319.,5.42760244448824));
#503=UNCERTAINTY_MEASURE_WITH_UNIT(LENGTH_MEASURE(0.01),#507,
'DISTANCE_ACCURACY_VALUE',
'Maximum model space distance between geometric entities at asserted c
onnectivities');
#504=UNCERTAINTY_MEASURE_WITH_UNIT(LENGTH_MEASURE(0.01),#507,
'DISTANCE_ACCURACY_VALUE',
'Maximum model space distance between geometric entities at asserted c
onnectivities');
#505=(
GEOMETRIC_REPRESENTATION_CONTEXT(3)
GLOBAL_UNCERTAINTY_ASSIGNED_CONTEXT((#503))
GLOBAL_UNIT_ASSIGNED_CONTEXT((#507,#509,#510))
REPRESENTATION_CONTEXT('','3D')
);
#506=(
GEOMETRIC_REPRESENTATION_CONTEXT(3)
GLOBAL_UNCERTAINTY_ASSIGNED_CONTEXT((#504))
GLOBAL_UNIT_ASSIGNED_CONTEXT((#507,#509,#510))
REPRESENTATION_CONTEXT('','3D')
);
#507=(
LENGTH_UNIT()
NAMED_UNIT(*)
SI_UNIT(.MILLI.,.METRE.)
);
#508=(
LENGTH_UNIT()
NAMED_UNIT(*)
SI_UNIT(.CENTI.,.METRE.)
);
#509=(
NAMED_UNIT(*)
PLANE_ANGLE_UNIT()
SI_UNIT($,.RADIAN.)
);
#510=(
NAMED_UNIT(*)
SI_UNIT($,.STERADIAN.)
SOLID_ANGLE_UNIT()
);
#511=SHAPE_DEFINITION_REPRESENTATION(#512,#513);
#512=PRODUCT_DEFINITION_SHAPE('',$,#515);
#513=SHAPE_REPRESENTATION('',(#303),#505);
#514=PRODUCT_DEFINITION_CONTEXT('part definition',#519,'design');
#515=PRODUCT_DEFINITION('23369-03','23369',#516,#514);
#516=PRODUCT_DEFINITION_FORMATION('',$,#521);
#517=PRODUCT_RELATED_PRODUCT_CATEGORY('23369','23369',(#521));
#518=APPLICATION_PROTOCOL_DEFINITION('international standard',
'automotive_design',2009,#519);
#519=APPLICATION_CONTEXT(
'Core Data for Automotive Mechanical Design Process');
#520=PRODUCT_CONTEXT('part definition',#519,'mechanical');
#521=PRODUCT('23369-03','23369',$,(#520));
#522=PRESENTATION_STYLE_ASSIGNMENT((#523));
#523=SURFACE_STYLE_USAGE(.BOTH.,#526);
#524=SURFACE_STYLE_RENDERING_WITH_PROPERTIES($,#530,(#525));
#525=SURFACE_STYLE_TRANSPARENT(0.);
#526=SURFACE_SIDE_STYLE('',(#527,#524));
#527=SURFACE_STYLE_FILL_AREA(#528);
#528=FILL_AREA_STYLE('',(#529));
#529=FILL_AREA_STYLE_COLOUR('',#530);
#530=COLOUR_RGB('',0.501960784313725,0.501960784313725,0.501960784313725);
ENDSEC;
END-ISO-10303-21;
