ISO-10303-21;
HEADER;
/* Generated by software containing ST-Developer
 * from STEP Tools, Inc. (www.steptools.com) 
 */

FILE_DESCRIPTION(
/* description */ ('PATTE EQUERRE A VISSER INOX 304L'),
/* implementation_level */ '2;1');

FILE_NAME(
/* name */ 'R:\\BE\\Transfert-temporaire\\9033XA2.stp',
/* time_stamp */ '2019-08-23T08:43:20+02:00',
/* author */ ('Didierr'),
/* organization */ (''),
/* preprocessor_version */ 'ST-DEVELOPER v17.2',
/* originating_system */ 'Autodesk Inventor 2019',
/* authorisation */ '');

FILE_SCHEMA (('AUTOMOTIVE_DESIGN { 1 0 10303 214 3 1 1 }'));
ENDSEC;

DATA;
#10=MECHANICAL_DESIGN_GEOMETRIC_PRESENTATION_REPRESENTATION('',(#13),#616);
#11=SHAPE_REPRESENTATION_RELATIONSHIP('SRR','None',#623,#12);
#12=ADVANCED_BREP_SHAPE_REPRESENTATION('',(#14),#615);
#13=STYLED_ITEM('',(#632),#14);
#14=MANIFOLD_SOLID_BREP('Solide1',#342);
#15=FACE_BOUND('',#51,.T.);
#16=FACE_BOUND('',#60,.T.);
#17=FACE_BOUND('',#63,.T.);
#18=FACE_BOUND('',#64,.T.);
#19=FACE_BOUND('',#67,.T.);
#20=FACE_BOUND('',#68,.T.);
#21=PLANE('',#368);
#22=PLANE('',#371);
#23=PLANE('',#374);
#24=PLANE('',#377);
#25=PLANE('',#380);
#26=PLANE('',#392);
#27=PLANE('',#394);
#28=PLANE('',#396);
#29=FACE_OUTER_BOUND('',#46,.T.);
#30=FACE_OUTER_BOUND('',#47,.T.);
#31=FACE_OUTER_BOUND('',#48,.T.);
#32=FACE_OUTER_BOUND('',#49,.T.);
#33=FACE_OUTER_BOUND('',#50,.T.);
#34=FACE_OUTER_BOUND('',#52,.T.);
#35=FACE_OUTER_BOUND('',#53,.T.);
#36=FACE_OUTER_BOUND('',#54,.T.);
#37=FACE_OUTER_BOUND('',#55,.T.);
#38=FACE_OUTER_BOUND('',#56,.T.);
#39=FACE_OUTER_BOUND('',#57,.T.);
#40=FACE_OUTER_BOUND('',#58,.T.);
#41=FACE_OUTER_BOUND('',#59,.T.);
#42=FACE_OUTER_BOUND('',#61,.T.);
#43=FACE_OUTER_BOUND('',#62,.T.);
#44=FACE_OUTER_BOUND('',#65,.T.);
#45=FACE_OUTER_BOUND('',#66,.T.);
#46=EDGE_LOOP('',(#222,#223,#224,#225));
#47=EDGE_LOOP('',(#226,#227,#228,#229));
#48=EDGE_LOOP('',(#230,#231,#232,#233,#234,#235,#236));
#49=EDGE_LOOP('',(#237,#238,#239,#240,#241,#242,#243));
#50=EDGE_LOOP('',(#244,#245,#246,#247,#248,#249));
#51=EDGE_LOOP('',(#250,#251,#252,#253));
#52=EDGE_LOOP('',(#254,#255,#256,#257));
#53=EDGE_LOOP('',(#258,#259,#260,#261));
#54=EDGE_LOOP('',(#262,#263,#264,#265));
#55=EDGE_LOOP('',(#266,#267,#268,#269));
#56=EDGE_LOOP('',(#270,#271,#272,#273,#274));
#57=EDGE_LOOP('',(#275,#276,#277,#278,#279));
#58=EDGE_LOOP('',(#280,#281,#282,#283));
#59=EDGE_LOOP('',(#284,#285,#286,#287,#288,#289));
#60=EDGE_LOOP('',(#290,#291,#292,#293));
#61=EDGE_LOOP('',(#294,#295,#296,#297));
#62=EDGE_LOOP('',(#298,#299,#300,#301));
#63=EDGE_LOOP('',(#302));
#64=EDGE_LOOP('',(#303));
#65=EDGE_LOOP('',(#304,#305,#306,#307));
#66=EDGE_LOOP('',(#308,#309,#310,#311));
#67=EDGE_LOOP('',(#312,#313));
#68=EDGE_LOOP('',(#314,#315));
#69=B_SPLINE_CURVE_WITH_KNOTS('',3,(#505,#506,#507,#508,#509,#510,#511,
#512,#513,#514),.UNSPECIFIED.,.F.,.F.,(4,2,2,2,4),(0.,0.226365071343704,
0.452730142687407,0.691169700705005,0.929609258722603),.UNSPECIFIED.);
#70=B_SPLINE_CURVE_WITH_KNOTS('',3,(#523,#524,#525,#526,#527,#528,#529,
#530,#531,#532,#533,#534),.UNSPECIFIED.,.F.,.F.,(4,2,2,2,2,4),(-0.922062905158213,
-0.743106319540364,-0.556319446582331,-0.369532573624299,-0.184766286812149,
0.),.UNSPECIFIED.);
#71=LINE('',#502,#98);
#72=LINE('',#520,#99);
#73=LINE('',#537,#100);
#74=LINE('',#539,#101);
#75=LINE('',#543,#102);
#76=LINE('',#546,#103);
#77=LINE('',#549,#104);
#78=LINE('',#553,#105);
#79=LINE('',#557,#106);
#80=LINE('',#558,#107);
#81=LINE('',#560,#108);
#82=LINE('',#561,#109);
#83=LINE('',#564,#110);
#84=LINE('',#568,#111);
#85=LINE('',#572,#112);
#86=LINE('',#574,#113);
#87=LINE('',#575,#114);
#88=LINE('',#579,#115);
#89=LINE('',#582,#116);
#90=LINE('',#583,#117);
#91=LINE('',#592,#118);
#92=LINE('',#600,#119);
#93=LINE('',#603,#120);
#94=LINE('',#605,#121);
#95=LINE('',#606,#122);
#96=LINE('',#609,#123);
#97=LINE('',#611,#124);
#98=VECTOR('',#403,10.);
#99=VECTOR('',#410,10.);
#100=VECTOR('',#415,10.);
#101=VECTOR('',#416,10.);
#102=VECTOR('',#419,10.);
#103=VECTOR('',#422,10.);
#104=VECTOR('',#425,10.);
#105=VECTOR('',#428,10.);
#106=VECTOR('',#431,10.);
#107=VECTOR('',#432,10.);
#108=VECTOR('',#435,10.);
#109=VECTOR('',#436,10.);
#110=VECTOR('',#437,10.);
#111=VECTOR('',#440,10.);
#112=VECTOR('',#445,10.);
#113=VECTOR('',#446,10.);
#114=VECTOR('',#447,10.);
#115=VECTOR('',#452,10.);
#116=VECTOR('',#455,10.);
#117=VECTOR('',#456,10.);
#118=VECTOR('',#467,4.5);
#119=VECTOR('',#476,4.5);
#120=VECTOR('',#481,10.);
#121=VECTOR('',#484,10.);
#122=VECTOR('',#485,10.);
#123=VECTOR('',#490,10.);
#124=VECTOR('',#493,10.);
#125=CIRCLE('',#363,12.5);
#126=CIRCLE('',#364,12.5);
#127=CIRCLE('',#366,12.5);
#128=CIRCLE('',#367,12.5);
#129=CIRCLE('',#369,6.);
#130=CIRCLE('',#370,4.);
#131=CIRCLE('',#372,4.);
#132=CIRCLE('',#373,6.);
#133=CIRCLE('',#375,7.25);
#134=CIRCLE('',#376,7.25);
#135=CIRCLE('',#379,7.25);
#136=CIRCLE('',#382,7.25);
#137=CIRCLE('',#384,4.5);
#138=CIRCLE('',#385,4.5);
#139=CIRCLE('',#386,4.5);
#140=CIRCLE('',#388,4.5);
#141=CIRCLE('',#389,4.5);
#142=CIRCLE('',#390,4.5);
#143=VERTEX_POINT('',#498);
#144=VERTEX_POINT('',#499);
#145=VERTEX_POINT('',#501);
#146=VERTEX_POINT('',#503);
#147=VERTEX_POINT('',#516);
#148=VERTEX_POINT('',#517);
#149=VERTEX_POINT('',#519);
#150=VERTEX_POINT('',#521);
#151=VERTEX_POINT('',#536);
#152=VERTEX_POINT('',#538);
#153=VERTEX_POINT('',#540);
#154=VERTEX_POINT('',#542);
#155=VERTEX_POINT('',#544);
#156=VERTEX_POINT('',#548);
#157=VERTEX_POINT('',#550);
#158=VERTEX_POINT('',#552);
#159=VERTEX_POINT('',#554);
#160=VERTEX_POINT('',#556);
#161=VERTEX_POINT('',#562);
#162=VERTEX_POINT('',#563);
#163=VERTEX_POINT('',#565);
#164=VERTEX_POINT('',#567);
#165=VERTEX_POINT('',#571);
#166=VERTEX_POINT('',#573);
#167=VERTEX_POINT('',#577);
#168=VERTEX_POINT('',#581);
#169=VERTEX_POINT('',#587);
#170=VERTEX_POINT('',#588);
#171=VERTEX_POINT('',#591);
#172=VERTEX_POINT('',#595);
#173=VERTEX_POINT('',#596);
#174=VERTEX_POINT('',#599);
#175=EDGE_CURVE('',#143,#144,#125,.T.);
#176=EDGE_CURVE('',#145,#143,#71,.T.);
#177=EDGE_CURVE('',#146,#145,#126,.T.);
#178=EDGE_CURVE('',#144,#146,#69,.T.);
#179=EDGE_CURVE('',#147,#148,#127,.T.);
#180=EDGE_CURVE('',#149,#147,#72,.T.);
#181=EDGE_CURVE('',#150,#149,#128,.T.);
#182=EDGE_CURVE('',#148,#150,#70,.T.);
#183=EDGE_CURVE('',#143,#151,#73,.T.);
#184=EDGE_CURVE('',#151,#152,#74,.T.);
#185=EDGE_CURVE('',#152,#153,#129,.T.);
#186=EDGE_CURVE('',#153,#154,#75,.T.);
#187=EDGE_CURVE('',#155,#154,#130,.T.);
#188=EDGE_CURVE('',#155,#145,#76,.T.);
#189=EDGE_CURVE('',#147,#156,#77,.T.);
#190=EDGE_CURVE('',#157,#156,#131,.T.);
#191=EDGE_CURVE('',#157,#158,#78,.T.);
#192=EDGE_CURVE('',#158,#159,#132,.T.);
#193=EDGE_CURVE('',#159,#160,#79,.T.);
#194=EDGE_CURVE('',#160,#149,#80,.T.);
#195=EDGE_CURVE('',#156,#155,#81,.T.);
#196=EDGE_CURVE('',#148,#146,#82,.T.);
#197=EDGE_CURVE('',#161,#162,#83,.T.);
#198=EDGE_CURVE('',#162,#163,#133,.T.);
#199=EDGE_CURVE('',#163,#164,#84,.T.);
#200=EDGE_CURVE('',#164,#161,#134,.T.);
#201=EDGE_CURVE('',#163,#165,#85,.T.);
#202=EDGE_CURVE('',#166,#165,#86,.T.);
#203=EDGE_CURVE('',#164,#166,#87,.T.);
#204=EDGE_CURVE('',#167,#166,#135,.T.);
#205=EDGE_CURVE('',#161,#167,#88,.T.);
#206=EDGE_CURVE('',#168,#167,#89,.T.);
#207=EDGE_CURVE('',#168,#162,#90,.T.);
#208=EDGE_CURVE('',#165,#168,#136,.T.);
#209=EDGE_CURVE('',#169,#170,#137,.T.);
#210=EDGE_CURVE('',#170,#169,#138,.T.);
#211=EDGE_CURVE('',#170,#171,#91,.T.);
#212=EDGE_CURVE('',#171,#171,#139,.T.);
#213=EDGE_CURVE('',#172,#173,#140,.T.);
#214=EDGE_CURVE('',#173,#172,#141,.T.);
#215=EDGE_CURVE('',#173,#174,#92,.T.);
#216=EDGE_CURVE('',#174,#174,#142,.T.);
#217=EDGE_CURVE('',#154,#157,#93,.T.);
#218=EDGE_CURVE('',#150,#144,#94,.T.);
#219=EDGE_CURVE('',#151,#160,#95,.T.);
#220=EDGE_CURVE('',#158,#153,#96,.T.);
#221=EDGE_CURVE('',#159,#152,#97,.T.);
#222=ORIENTED_EDGE('',*,*,#175,.F.);
#223=ORIENTED_EDGE('',*,*,#176,.F.);
#224=ORIENTED_EDGE('',*,*,#177,.F.);
#225=ORIENTED_EDGE('',*,*,#178,.F.);
#226=ORIENTED_EDGE('',*,*,#179,.F.);
#227=ORIENTED_EDGE('',*,*,#180,.F.);
#228=ORIENTED_EDGE('',*,*,#181,.F.);
#229=ORIENTED_EDGE('',*,*,#182,.F.);
#230=ORIENTED_EDGE('',*,*,#176,.T.);
#231=ORIENTED_EDGE('',*,*,#183,.T.);
#232=ORIENTED_EDGE('',*,*,#184,.T.);
#233=ORIENTED_EDGE('',*,*,#185,.T.);
#234=ORIENTED_EDGE('',*,*,#186,.T.);
#235=ORIENTED_EDGE('',*,*,#187,.F.);
#236=ORIENTED_EDGE('',*,*,#188,.T.);
#237=ORIENTED_EDGE('',*,*,#180,.T.);
#238=ORIENTED_EDGE('',*,*,#189,.T.);
#239=ORIENTED_EDGE('',*,*,#190,.F.);
#240=ORIENTED_EDGE('',*,*,#191,.T.);
#241=ORIENTED_EDGE('',*,*,#192,.T.);
#242=ORIENTED_EDGE('',*,*,#193,.T.);
#243=ORIENTED_EDGE('',*,*,#194,.T.);
#244=ORIENTED_EDGE('',*,*,#177,.T.);
#245=ORIENTED_EDGE('',*,*,#188,.F.);
#246=ORIENTED_EDGE('',*,*,#195,.F.);
#247=ORIENTED_EDGE('',*,*,#189,.F.);
#248=ORIENTED_EDGE('',*,*,#179,.T.);
#249=ORIENTED_EDGE('',*,*,#196,.T.);
#250=ORIENTED_EDGE('',*,*,#197,.T.);
#251=ORIENTED_EDGE('',*,*,#198,.T.);
#252=ORIENTED_EDGE('',*,*,#199,.T.);
#253=ORIENTED_EDGE('',*,*,#200,.T.);
#254=ORIENTED_EDGE('',*,*,#199,.F.);
#255=ORIENTED_EDGE('',*,*,#201,.T.);
#256=ORIENTED_EDGE('',*,*,#202,.F.);
#257=ORIENTED_EDGE('',*,*,#203,.F.);
#258=ORIENTED_EDGE('',*,*,#200,.F.);
#259=ORIENTED_EDGE('',*,*,#203,.T.);
#260=ORIENTED_EDGE('',*,*,#204,.F.);
#261=ORIENTED_EDGE('',*,*,#205,.F.);
#262=ORIENTED_EDGE('',*,*,#197,.F.);
#263=ORIENTED_EDGE('',*,*,#205,.T.);
#264=ORIENTED_EDGE('',*,*,#206,.F.);
#265=ORIENTED_EDGE('',*,*,#207,.T.);
#266=ORIENTED_EDGE('',*,*,#198,.F.);
#267=ORIENTED_EDGE('',*,*,#207,.F.);
#268=ORIENTED_EDGE('',*,*,#208,.F.);
#269=ORIENTED_EDGE('',*,*,#201,.F.);
#270=ORIENTED_EDGE('',*,*,#209,.F.);
#271=ORIENTED_EDGE('',*,*,#210,.F.);
#272=ORIENTED_EDGE('',*,*,#211,.T.);
#273=ORIENTED_EDGE('',*,*,#212,.F.);
#274=ORIENTED_EDGE('',*,*,#211,.F.);
#275=ORIENTED_EDGE('',*,*,#213,.F.);
#276=ORIENTED_EDGE('',*,*,#214,.F.);
#277=ORIENTED_EDGE('',*,*,#215,.T.);
#278=ORIENTED_EDGE('',*,*,#216,.F.);
#279=ORIENTED_EDGE('',*,*,#215,.F.);
#280=ORIENTED_EDGE('',*,*,#190,.T.);
#281=ORIENTED_EDGE('',*,*,#195,.T.);
#282=ORIENTED_EDGE('',*,*,#187,.T.);
#283=ORIENTED_EDGE('',*,*,#217,.T.);
#284=ORIENTED_EDGE('',*,*,#175,.T.);
#285=ORIENTED_EDGE('',*,*,#218,.F.);
#286=ORIENTED_EDGE('',*,*,#181,.T.);
#287=ORIENTED_EDGE('',*,*,#194,.F.);
#288=ORIENTED_EDGE('',*,*,#219,.F.);
#289=ORIENTED_EDGE('',*,*,#183,.F.);
#290=ORIENTED_EDGE('',*,*,#206,.T.);
#291=ORIENTED_EDGE('',*,*,#204,.T.);
#292=ORIENTED_EDGE('',*,*,#202,.T.);
#293=ORIENTED_EDGE('',*,*,#208,.T.);
#294=ORIENTED_EDGE('',*,*,#178,.T.);
#295=ORIENTED_EDGE('',*,*,#196,.F.);
#296=ORIENTED_EDGE('',*,*,#182,.T.);
#297=ORIENTED_EDGE('',*,*,#218,.T.);
#298=ORIENTED_EDGE('',*,*,#217,.F.);
#299=ORIENTED_EDGE('',*,*,#186,.F.);
#300=ORIENTED_EDGE('',*,*,#220,.F.);
#301=ORIENTED_EDGE('',*,*,#191,.F.);
#302=ORIENTED_EDGE('',*,*,#212,.T.);
#303=ORIENTED_EDGE('',*,*,#216,.T.);
#304=ORIENTED_EDGE('',*,*,#220,.T.);
#305=ORIENTED_EDGE('',*,*,#185,.F.);
#306=ORIENTED_EDGE('',*,*,#221,.F.);
#307=ORIENTED_EDGE('',*,*,#192,.F.);
#308=ORIENTED_EDGE('',*,*,#221,.T.);
#309=ORIENTED_EDGE('',*,*,#184,.F.);
#310=ORIENTED_EDGE('',*,*,#219,.T.);
#311=ORIENTED_EDGE('',*,*,#193,.F.);
#312=ORIENTED_EDGE('',*,*,#209,.T.);
#313=ORIENTED_EDGE('',*,*,#210,.T.);
#314=ORIENTED_EDGE('',*,*,#213,.T.);
#315=ORIENTED_EDGE('',*,*,#214,.T.);
#316=CYLINDRICAL_SURFACE('',#362,12.5);
#317=CYLINDRICAL_SURFACE('',#365,12.5);
#318=CYLINDRICAL_SURFACE('',#378,7.25);
#319=CYLINDRICAL_SURFACE('',#381,7.25);
#320=CYLINDRICAL_SURFACE('',#383,4.5);
#321=CYLINDRICAL_SURFACE('',#387,4.5);
#322=CYLINDRICAL_SURFACE('',#391,4.);
#323=CYLINDRICAL_SURFACE('',#393,6.);
#324=CYLINDRICAL_SURFACE('',#395,6.);
#325=ADVANCED_FACE('',(#29),#316,.F.);
#326=ADVANCED_FACE('',(#30),#317,.F.);
#327=ADVANCED_FACE('',(#31),#21,.T.);
#328=ADVANCED_FACE('',(#32),#22,.F.);
#329=ADVANCED_FACE('',(#33,#15),#23,.T.);
#330=ADVANCED_FACE('',(#34),#24,.F.);
#331=ADVANCED_FACE('',(#35),#318,.F.);
#332=ADVANCED_FACE('',(#36),#25,.F.);
#333=ADVANCED_FACE('',(#37),#319,.F.);
#334=ADVANCED_FACE('',(#38),#320,.F.);
#335=ADVANCED_FACE('',(#39),#321,.F.);
#336=ADVANCED_FACE('',(#40),#322,.F.);
#337=ADVANCED_FACE('',(#41,#16),#26,.T.);
#338=ADVANCED_FACE('',(#42),#323,.T.);
#339=ADVANCED_FACE('',(#43,#17,#18),#27,.T.);
#340=ADVANCED_FACE('',(#44),#324,.T.);
#341=ADVANCED_FACE('',(#45,#19,#20),#28,.T.);
#342=CLOSED_SHELL('',(#325,#326,#327,#328,#329,#330,#331,#332,#333,#334,
#335,#336,#337,#338,#339,#340,#341));
#343=DERIVED_UNIT_ELEMENT(#345,1.);
#344=DERIVED_UNIT_ELEMENT(#618,3.);
#345=(
MASS_UNIT()
NAMED_UNIT(*)
SI_UNIT($,.GRAM.)
);
#346=DERIVED_UNIT((#343,#344));
#347=MEASURE_REPRESENTATION_ITEM('density measure',
POSITIVE_RATIO_MEASURE(8.),#346);
#348=PROPERTY_DEFINITION_REPRESENTATION(#353,#350);
#349=PROPERTY_DEFINITION_REPRESENTATION(#354,#351);
#350=REPRESENTATION('material name',(#352),#615);
#351=REPRESENTATION('density',(#347),#615);
#352=DESCRIPTIVE_REPRESENTATION_ITEM('Acier inox 304L',
'Acier inox 304L');
#353=PROPERTY_DEFINITION('material property','material name',#625);
#354=PROPERTY_DEFINITION('material property','density of part',#625);
#355=DATE_TIME_ROLE('creation_date');
#356=APPLIED_DATE_AND_TIME_ASSIGNMENT(#357,#355,(#625));
#357=DATE_AND_TIME(#358,#359);
#358=CALENDAR_DATE(2013,25,1);
#359=LOCAL_TIME(7,25,11.,#360);
#360=COORDINATED_UNIVERSAL_TIME_OFFSET(0,0,.BEHIND.);
#361=AXIS2_PLACEMENT_3D('placement',#496,#397,#398);
#362=AXIS2_PLACEMENT_3D('',#497,#399,#400);
#363=AXIS2_PLACEMENT_3D('',#500,#401,#402);
#364=AXIS2_PLACEMENT_3D('',#504,#404,#405);
#365=AXIS2_PLACEMENT_3D('',#515,#406,#407);
#366=AXIS2_PLACEMENT_3D('',#518,#408,#409);
#367=AXIS2_PLACEMENT_3D('',#522,#411,#412);
#368=AXIS2_PLACEMENT_3D('',#535,#413,#414);
#369=AXIS2_PLACEMENT_3D('',#541,#417,#418);
#370=AXIS2_PLACEMENT_3D('',#545,#420,#421);
#371=AXIS2_PLACEMENT_3D('',#547,#423,#424);
#372=AXIS2_PLACEMENT_3D('',#551,#426,#427);
#373=AXIS2_PLACEMENT_3D('',#555,#429,#430);
#374=AXIS2_PLACEMENT_3D('',#559,#433,#434);
#375=AXIS2_PLACEMENT_3D('',#566,#438,#439);
#376=AXIS2_PLACEMENT_3D('',#569,#441,#442);
#377=AXIS2_PLACEMENT_3D('',#570,#443,#444);
#378=AXIS2_PLACEMENT_3D('',#576,#448,#449);
#379=AXIS2_PLACEMENT_3D('',#578,#450,#451);
#380=AXIS2_PLACEMENT_3D('',#580,#453,#454);
#381=AXIS2_PLACEMENT_3D('',#584,#457,#458);
#382=AXIS2_PLACEMENT_3D('',#585,#459,#460);
#383=AXIS2_PLACEMENT_3D('',#586,#461,#462);
#384=AXIS2_PLACEMENT_3D('',#589,#463,#464);
#385=AXIS2_PLACEMENT_3D('',#590,#465,#466);
#386=AXIS2_PLACEMENT_3D('',#593,#468,#469);
#387=AXIS2_PLACEMENT_3D('',#594,#470,#471);
#388=AXIS2_PLACEMENT_3D('',#597,#472,#473);
#389=AXIS2_PLACEMENT_3D('',#598,#474,#475);
#390=AXIS2_PLACEMENT_3D('',#601,#477,#478);
#391=AXIS2_PLACEMENT_3D('',#602,#479,#480);
#392=AXIS2_PLACEMENT_3D('',#604,#482,#483);
#393=AXIS2_PLACEMENT_3D('',#607,#486,#487);
#394=AXIS2_PLACEMENT_3D('',#608,#488,#489);
#395=AXIS2_PLACEMENT_3D('',#610,#491,#492);
#396=AXIS2_PLACEMENT_3D('',#612,#494,#495);
#397=DIRECTION('axis',(0.,0.,1.));
#398=DIRECTION('refdir',(1.,0.,0.));
#399=DIRECTION('center_axis',(0.,0.,-1.));
#400=DIRECTION('ref_axis',(1.,0.,0.));
#401=DIRECTION('center_axis',(0.,0.,1.));
#402=DIRECTION('ref_axis',(1.,0.,0.));
#403=DIRECTION('',(0.,0.,-1.));
#404=DIRECTION('center_axis',(0.,0.,-1.));
#405=DIRECTION('ref_axis',(1.,0.,0.));
#406=DIRECTION('center_axis',(0.,0.,-1.));
#407=DIRECTION('ref_axis',(1.,0.,0.));
#408=DIRECTION('center_axis',(0.,0.,-1.));
#409=DIRECTION('ref_axis',(1.,0.,0.));
#410=DIRECTION('',(0.,0.,1.));
#411=DIRECTION('center_axis',(0.,0.,1.));
#412=DIRECTION('ref_axis',(1.,0.,0.));
#413=DIRECTION('center_axis',(0.,1.,0.));
#414=DIRECTION('ref_axis',(0.,0.,1.));
#415=DIRECTION('',(-1.,0.,0.));
#416=DIRECTION('',(0.,0.,1.));
#417=DIRECTION('center_axis',(0.,1.,0.));
#418=DIRECTION('ref_axis',(0.,0.,1.));
#419=DIRECTION('',(0.,0.,-1.));
#420=DIRECTION('center_axis',(0.,1.,0.));
#421=DIRECTION('ref_axis',(-0.707106781186548,0.,-0.707106781186548));
#422=DIRECTION('',(1.,0.,0.));
#423=DIRECTION('center_axis',(0.,1.,0.));
#424=DIRECTION('ref_axis',(0.,0.,1.));
#425=DIRECTION('',(-1.,0.,0.));
#426=DIRECTION('center_axis',(0.,-1.,0.));
#427=DIRECTION('ref_axis',(-0.707106781186548,0.,-0.707106781186548));
#428=DIRECTION('',(0.,0.,1.));
#429=DIRECTION('center_axis',(0.,-1.,0.));
#430=DIRECTION('ref_axis',(0.,0.,1.));
#431=DIRECTION('',(0.,0.,-1.));
#432=DIRECTION('',(1.,0.,0.));
#433=DIRECTION('center_axis',(0.,0.,1.));
#434=DIRECTION('ref_axis',(1.,0.,0.));
#435=DIRECTION('',(0.,1.,0.));
#436=DIRECTION('',(0.,1.,0.));
#437=DIRECTION('',(-1.,4.44089209850063E-16,0.));
#438=DIRECTION('center_axis',(0.,0.,-1.));
#439=DIRECTION('ref_axis',(1.,0.,0.));
#440=DIRECTION('',(1.,-4.44089209850063E-16,0.));
#441=DIRECTION('center_axis',(0.,0.,-1.));
#442=DIRECTION('ref_axis',(1.,0.,0.));
#443=DIRECTION('center_axis',(4.44089209850063E-16,1.,0.));
#444=DIRECTION('ref_axis',(1.,-4.44089209850063E-16,0.));
#445=DIRECTION('',(0.,0.,-1.));
#446=DIRECTION('',(-1.,4.44089209850063E-16,0.));
#447=DIRECTION('',(0.,0.,-1.));
#448=DIRECTION('center_axis',(0.,0.,-1.));
#449=DIRECTION('ref_axis',(1.,0.,0.));
#450=DIRECTION('center_axis',(0.,0.,1.));
#451=DIRECTION('ref_axis',(1.,0.,0.));
#452=DIRECTION('',(0.,0.,-1.));
#453=DIRECTION('center_axis',(-4.44089209850063E-16,-1.,0.));
#454=DIRECTION('ref_axis',(-1.,4.44089209850063E-16,0.));
#455=DIRECTION('',(1.,-4.44089209850063E-16,0.));
#456=DIRECTION('',(0.,0.,1.));
#457=DIRECTION('center_axis',(0.,0.,-1.));
#458=DIRECTION('ref_axis',(-1.,7.6571373978539E-16,0.));
#459=DIRECTION('center_axis',(0.,0.,1.));
#460=DIRECTION('ref_axis',(1.,0.,0.));
#461=DIRECTION('center_axis',(-1.,0.,0.));
#462=DIRECTION('ref_axis',(0.,0.,1.));
#463=DIRECTION('center_axis',(1.,0.,0.));
#464=DIRECTION('ref_axis',(0.,0.,1.));
#465=DIRECTION('center_axis',(1.,0.,0.));
#466=DIRECTION('ref_axis',(0.,0.,1.));
#467=DIRECTION('',(1.,0.,0.));
#468=DIRECTION('center_axis',(-1.,0.,0.));
#469=DIRECTION('ref_axis',(0.,0.,1.));
#470=DIRECTION('center_axis',(-1.,0.,0.));
#471=DIRECTION('ref_axis',(0.,0.,1.));
#472=DIRECTION('center_axis',(1.,0.,0.));
#473=DIRECTION('ref_axis',(0.,0.,1.));
#474=DIRECTION('center_axis',(1.,0.,0.));
#475=DIRECTION('ref_axis',(0.,0.,1.));
#476=DIRECTION('',(1.,0.,0.));
#477=DIRECTION('center_axis',(-1.,0.,0.));
#478=DIRECTION('ref_axis',(0.,0.,1.));
#479=DIRECTION('center_axis',(0.,1.,0.));
#480=DIRECTION('ref_axis',(-0.707106781186548,0.,-0.707106781186548));
#481=DIRECTION('',(0.,-1.,0.));
#482=DIRECTION('center_axis',(0.,0.,-1.));
#483=DIRECTION('ref_axis',(-1.,0.,0.));
#484=DIRECTION('',(0.,1.,0.));
#485=DIRECTION('',(0.,-1.,0.));
#486=DIRECTION('center_axis',(0.,1.,0.));
#487=DIRECTION('ref_axis',(0.,0.,1.));
#488=DIRECTION('center_axis',(1.,0.,0.));
#489=DIRECTION('ref_axis',(0.,0.,-1.));
#490=DIRECTION('',(0.,1.,0.));
#491=DIRECTION('center_axis',(0.,1.,0.));
#492=DIRECTION('ref_axis',(0.,0.,1.));
#493=DIRECTION('',(0.,1.,0.));
#494=DIRECTION('center_axis',(-1.,0.,0.));
#495=DIRECTION('ref_axis',(0.,0.,1.));
#496=CARTESIAN_POINT('',(0.,0.,0.));
#497=CARTESIAN_POINT('Origin',(60.,40.,0.));
#498=CARTESIAN_POINT('',(47.5,40.,0.));
#499=CARTESIAN_POINT('',(60.,27.5,0.));
#500=CARTESIAN_POINT('Origin',(60.,40.,0.));
#501=CARTESIAN_POINT('',(47.5,40.,6.));
#502=CARTESIAN_POINT('',(47.5,40.,0.));
#503=CARTESIAN_POINT('',(54.,29.0341439002693,6.));
#504=CARTESIAN_POINT('Origin',(60.,40.,6.));
#505=CARTESIAN_POINT('Ctrl Pts',(60.,27.5,1.38777878078145E-16));
#506=CARTESIAN_POINT('Ctrl Pts',(60.,27.5,0.754550237812345));
#507=CARTESIAN_POINT('Ctrl Pts',(59.8488981074411,27.4971481625958,1.55916606636309));
#508=CARTESIAN_POINT('Ctrl Pts',(59.2356770154112,27.5196175132759,3.03781058637786));
#509=CARTESIAN_POINT('Ctrl Pts',(58.7735188665258,27.5487647821895,3.7117625077128));
#510=CARTESIAN_POINT('Ctrl Pts',(57.6834450580963,27.7035542473564,4.80183631614225));
#511=CARTESIAN_POINT('Ctrl Pts',(56.9771889977599,27.8457204853758,5.27104049596898));
#512=CARTESIAN_POINT('Ctrl Pts',(55.4831184687913,28.318318520759,5.86923137251955));
#513=CARTESIAN_POINT('Ctrl Pts',(54.6972517017878,28.6526406074412,6.));
#514=CARTESIAN_POINT('Ctrl Pts',(54.,29.0341439002693,6.));
#515=CARTESIAN_POINT('Origin',(60.,-40.,0.));
#516=CARTESIAN_POINT('',(47.5,-40.,6.));
#517=CARTESIAN_POINT('',(54.,-29.0341439002693,6.));
#518=CARTESIAN_POINT('Origin',(60.,-40.,6.));
#519=CARTESIAN_POINT('',(47.5,-40.,0.));
#520=CARTESIAN_POINT('',(47.5,-40.,0.));
#521=CARTESIAN_POINT('',(60.,-27.5,0.));
#522=CARTESIAN_POINT('Origin',(60.,-40.,0.));
#523=CARTESIAN_POINT('Ctrl Pts',(54.,-29.0341439002693,6.));
#524=CARTESIAN_POINT('Ctrl Pts',(54.5626340397689,-28.7262970520241,6.));
#525=CARTESIAN_POINT('Ctrl Pts',(55.1453102856454,-28.4668795904339,5.91647508877924));
#526=CARTESIAN_POINT('Ctrl Pts',(56.2486604510346,-28.0610754668526,5.59358869983581));
#527=CARTESIAN_POINT('Ctrl Pts',(56.8466303614198,-27.8916111534533,5.32235961816918));
#528=CARTESIAN_POINT('Ctrl Pts',(57.9300069654986,-27.6601479612506,4.58103306007086));
#529=CARTESIAN_POINT('Ctrl Pts',(58.4146062594762,-27.5952403810321,4.11066692404304));
#530=CARTESIAN_POINT('Ctrl Pts',(59.1594381123275,-27.5227429030249,3.12381436872346));
#531=CARTESIAN_POINT('Ctrl Pts',(59.4788379410228,-27.5091002646869,2.53369388944515));
#532=CARTESIAN_POINT('Ctrl Pts',(59.8991170378242,-27.4986397336314,1.27972196767449));
#533=CARTESIAN_POINT('Ctrl Pts',(60.,-27.5,0.615887622707163));
#534=CARTESIAN_POINT('Ctrl Pts',(60.,-27.5,4.16333634234434E-16));
#535=CARTESIAN_POINT('Origin',(17.2232220809673,40.,17.2232220809673));
#536=CARTESIAN_POINT('',(0.,40.,0.));
#537=CARTESIAN_POINT('',(60.,40.,0.));
#538=CARTESIAN_POINT('',(0.,40.,60.));
#539=CARTESIAN_POINT('',(0.,40.,0.));
#540=CARTESIAN_POINT('',(6.,40.,54.));
#541=CARTESIAN_POINT('Origin',(0.,40.,54.));
#542=CARTESIAN_POINT('',(6.,40.,10.));
#543=CARTESIAN_POINT('',(6.,40.,60.));
#544=CARTESIAN_POINT('',(10.,40.,6.));
#545=CARTESIAN_POINT('Origin',(10.,40.,10.));
#546=CARTESIAN_POINT('',(6.,40.,6.));
#547=CARTESIAN_POINT('Origin',(17.2232220809673,-40.,17.2232220809673));
#548=CARTESIAN_POINT('',(10.,-40.,6.));
#549=CARTESIAN_POINT('',(6.,-40.,6.));
#550=CARTESIAN_POINT('',(6.,-40.,10.));
#551=CARTESIAN_POINT('Origin',(10.,-40.,10.));
#552=CARTESIAN_POINT('',(6.,-40.,54.));
#553=CARTESIAN_POINT('',(6.,-40.,60.));
#554=CARTESIAN_POINT('',(0.,-40.,60.));
#555=CARTESIAN_POINT('Origin',(0.,-40.,54.));
#556=CARTESIAN_POINT('',(0.,-40.,0.));
#557=CARTESIAN_POINT('',(0.,-40.,0.));
#558=CARTESIAN_POINT('',(60.,-40.,0.));
#559=CARTESIAN_POINT('Origin',(6.,0.,6.));
#560=CARTESIAN_POINT('',(10.,0.,6.));
#561=CARTESIAN_POINT('',(54.,0.,6.));
#562=CARTESIAN_POINT('',(46.,-7.25,6.));
#563=CARTESIAN_POINT('',(26.,-7.24999999999999,6.));
#564=CARTESIAN_POINT('',(26.,-7.24999999999999,6.));
#565=CARTESIAN_POINT('',(26.,7.25000000000001,6.));
#566=CARTESIAN_POINT('Origin',(26.,8.88178419700125E-15,6.));
#567=CARTESIAN_POINT('',(46.,7.25,6.));
#568=CARTESIAN_POINT('',(16.,7.25000000000001,6.));
#569=CARTESIAN_POINT('Origin',(46.,0.,6.));
#570=CARTESIAN_POINT('Origin',(26.,7.25000000000001,0.));
#571=CARTESIAN_POINT('',(26.,7.25000000000001,0.));
#572=CARTESIAN_POINT('',(26.,7.25000000000001,0.));
#573=CARTESIAN_POINT('',(46.,7.25,0.));
#574=CARTESIAN_POINT('',(43.,7.25,0.));
#575=CARTESIAN_POINT('',(46.,7.25,0.));
#576=CARTESIAN_POINT('Origin',(46.,0.,0.));
#577=CARTESIAN_POINT('',(46.,-7.25,0.));
#578=CARTESIAN_POINT('Origin',(46.,0.,0.));
#579=CARTESIAN_POINT('',(46.,-7.25,0.));
#580=CARTESIAN_POINT('Origin',(46.,-7.25,0.));
#581=CARTESIAN_POINT('',(26.,-7.24999999999999,0.));
#582=CARTESIAN_POINT('',(53.,-7.25,0.));
#583=CARTESIAN_POINT('',(26.,-7.24999999999999,0.));
#584=CARTESIAN_POINT('Origin',(26.,8.88178419700125E-15,0.));
#585=CARTESIAN_POINT('Origin',(26.,8.88178419700125E-15,0.));
#586=CARTESIAN_POINT('Origin',(116.619037896906,28.,40.));
#587=CARTESIAN_POINT('',(0.,28.,44.5));
#588=CARTESIAN_POINT('',(0.,28.,35.5));
#589=CARTESIAN_POINT('Origin',(0.,28.,40.));
#590=CARTESIAN_POINT('Origin',(0.,28.,40.));
#591=CARTESIAN_POINT('',(6.,28.,35.5));
#592=CARTESIAN_POINT('',(116.619037896906,28.,35.5));
#593=CARTESIAN_POINT('Origin',(6.,28.,40.));
#594=CARTESIAN_POINT('Origin',(116.619037896906,-28.,40.));
#595=CARTESIAN_POINT('',(0.,-28.,44.5));
#596=CARTESIAN_POINT('',(0.,-28.,35.5));
#597=CARTESIAN_POINT('Origin',(0.,-28.,40.));
#598=CARTESIAN_POINT('Origin',(0.,-28.,40.));
#599=CARTESIAN_POINT('',(6.,-28.,35.5));
#600=CARTESIAN_POINT('',(116.619037896906,-28.,35.5));
#601=CARTESIAN_POINT('Origin',(6.,-28.,40.));
#602=CARTESIAN_POINT('Origin',(10.,0.,10.));
#603=CARTESIAN_POINT('',(6.,0.,10.));
#604=CARTESIAN_POINT('Origin',(60.,0.,0.));
#605=CARTESIAN_POINT('',(60.,0.,0.));
#606=CARTESIAN_POINT('',(0.,0.,0.));
#607=CARTESIAN_POINT('Origin',(54.,0.,5.55111512312578E-16));
#608=CARTESIAN_POINT('Origin',(6.,0.,54.));
#609=CARTESIAN_POINT('',(6.,0.,54.));
#610=CARTESIAN_POINT('Origin',(0.,0.,54.));
#611=CARTESIAN_POINT('',(0.,0.,60.));
#612=CARTESIAN_POINT('Origin',(0.,0.,0.));
#613=UNCERTAINTY_MEASURE_WITH_UNIT(LENGTH_MEASURE(0.01),#617,
'DISTANCE_ACCURACY_VALUE',
'Maximum model space distance between geometric entities at asserted c
onnectivities');
#614=UNCERTAINTY_MEASURE_WITH_UNIT(LENGTH_MEASURE(0.01),#617,
'DISTANCE_ACCURACY_VALUE',
'Maximum model space distance between geometric entities at asserted c
onnectivities');
#615=(
GEOMETRIC_REPRESENTATION_CONTEXT(3)
GLOBAL_UNCERTAINTY_ASSIGNED_CONTEXT((#613))
GLOBAL_UNIT_ASSIGNED_CONTEXT((#617,#619,#620))
REPRESENTATION_CONTEXT('','3D')
);
#616=(
GEOMETRIC_REPRESENTATION_CONTEXT(3)
GLOBAL_UNCERTAINTY_ASSIGNED_CONTEXT((#614))
GLOBAL_UNIT_ASSIGNED_CONTEXT((#617,#619,#620))
REPRESENTATION_CONTEXT('','3D')
);
#617=(
LENGTH_UNIT()
NAMED_UNIT(*)
SI_UNIT(.MILLI.,.METRE.)
);
#618=(
LENGTH_UNIT()
NAMED_UNIT(*)
SI_UNIT(.CENTI.,.METRE.)
);
#619=(
NAMED_UNIT(*)
PLANE_ANGLE_UNIT()
SI_UNIT($,.RADIAN.)
);
#620=(
NAMED_UNIT(*)
SI_UNIT($,.STERADIAN.)
SOLID_ANGLE_UNIT()
);
#621=SHAPE_DEFINITION_REPRESENTATION(#622,#623);
#622=PRODUCT_DEFINITION_SHAPE('',$,#625);
#623=SHAPE_REPRESENTATION('',(#361),#615);
#624=PRODUCT_DEFINITION_CONTEXT('part definition',#629,'design');
#625=PRODUCT_DEFINITION('9033XA2','9033XA2',#626,#624);
#626=PRODUCT_DEFINITION_FORMATION('',$,#631);
#627=PRODUCT_RELATED_PRODUCT_CATEGORY('9033XA2','9033XA2',(#631));
#628=APPLICATION_PROTOCOL_DEFINITION('international standard',
'automotive_design',2009,#629);
#629=APPLICATION_CONTEXT(
'Core Data for Automotive Mechanical Design Process');
#630=PRODUCT_CONTEXT('part definition',#629,'mechanical');
#631=PRODUCT('9033XA2','9033XA2','PATTE EQUERRE A VISSER INOX 304L',(#630));
#632=PRESENTATION_STYLE_ASSIGNMENT((#633));
#633=SURFACE_STYLE_USAGE(.BOTH.,#636);
#634=SURFACE_STYLE_RENDERING_WITH_PROPERTIES($,#640,(#635));
#635=SURFACE_STYLE_TRANSPARENT(0.);
#636=SURFACE_SIDE_STYLE('',(#637,#634));
#637=SURFACE_STYLE_FILL_AREA(#638);
#638=FILL_AREA_STYLE('',(#639));
#639=FILL_AREA_STYLE_COLOUR('',#640);
#640=COLOUR_RGB('',0.745098039215686,0.737254901960784,0.729411764705882);
ENDSEC;
END-ISO-10303-21;
