ISO-10303-21;
HEADER;
/* Generated by software containing ST-Developer
 * from STEP Tools, Inc. (www.steptools.com) 
 */

FILE_DESCRIPTION(
/* description */ (''),
/* implementation_level */ '2;1');

FILE_NAME(
/* name */ 'R:\\BE\\Transfert-temporaire\\20853.stp',
/* time_stamp */ '2019-08-14T15:40:05+02:00',
/* author */ ('DIDIERR'),
/* organization */ (''),
/* preprocessor_version */ 'ST-DEVELOPER v17.2',
/* originating_system */ 'Autodesk Inventor 2019',
/* authorisation */ '');

FILE_SCHEMA (('AUTOMOTIVE_DESIGN { 1 0 10303 214 3 1 1 }'));
ENDSEC;

DATA;
#10=MECHANICAL_DESIGN_GEOMETRIC_PRESENTATION_REPRESENTATION('',(#335,#336,
#337,#338,#339,#340),#610);
#11=SHAPE_REPRESENTATION_RELATIONSHIP('SRR','None',#617,#12);
#12=ADVANCED_BREP_SHAPE_REPRESENTATION('',(#13),#609);
#13=MANIFOLD_SOLID_BREP('Solide1',#360);
#14=FACE_BOUND('',#61,.T.);
#15=CIRCLE('',#386,1.5);
#16=CIRCLE('',#387,1.5);
#17=CIRCLE('',#390,1.);
#18=CIRCLE('',#391,1.);
#19=CIRCLE('',#392,1.);
#20=CIRCLE('',#393,1.);
#21=CIRCLE('',#395,1.);
#22=CIRCLE('',#398,1.);
#23=CIRCLE('',#401,1.);
#24=CIRCLE('',#404,1.);
#25=CYLINDRICAL_SURFACE('',#385,1.5);
#26=CYLINDRICAL_SURFACE('',#394,1.);
#27=CYLINDRICAL_SURFACE('',#397,1.);
#28=CYLINDRICAL_SURFACE('',#400,1.);
#29=CYLINDRICAL_SURFACE('',#403,1.);
#30=FACE_OUTER_BOUND('',#49,.T.);
#31=FACE_OUTER_BOUND('',#50,.T.);
#32=FACE_OUTER_BOUND('',#51,.T.);
#33=FACE_OUTER_BOUND('',#52,.T.);
#34=FACE_OUTER_BOUND('',#53,.T.);
#35=FACE_OUTER_BOUND('',#54,.T.);
#36=FACE_OUTER_BOUND('',#55,.T.);
#37=FACE_OUTER_BOUND('',#56,.T.);
#38=FACE_OUTER_BOUND('',#57,.T.);
#39=FACE_OUTER_BOUND('',#58,.T.);
#40=FACE_OUTER_BOUND('',#59,.T.);
#41=FACE_OUTER_BOUND('',#60,.T.);
#42=FACE_OUTER_BOUND('',#62,.T.);
#43=FACE_OUTER_BOUND('',#63,.T.);
#44=FACE_OUTER_BOUND('',#64,.T.);
#45=FACE_OUTER_BOUND('',#65,.T.);
#46=FACE_OUTER_BOUND('',#66,.T.);
#47=FACE_OUTER_BOUND('',#67,.T.);
#48=FACE_OUTER_BOUND('',#68,.T.);
#49=EDGE_LOOP('',(#225,#226,#227,#228));
#50=EDGE_LOOP('',(#229,#230,#231,#232));
#51=EDGE_LOOP('',(#233,#234,#235,#236));
#52=EDGE_LOOP('',(#237,#238,#239,#240));
#53=EDGE_LOOP('',(#241,#242,#243,#244));
#54=EDGE_LOOP('',(#245,#246,#247,#248));
#55=EDGE_LOOP('',(#249,#250,#251,#252));
#56=EDGE_LOOP('',(#253,#254,#255,#256,#257,#258,#259,#260,#261,#262,#263,
#264));
#57=EDGE_LOOP('',(#265,#266,#267,#268));
#58=EDGE_LOOP('',(#269,#270,#271,#272));
#59=EDGE_LOOP('',(#273,#274,#275,#276));
#60=EDGE_LOOP('',(#277,#278,#279,#280));
#61=EDGE_LOOP('',(#281,#282,#283,#284));
#62=EDGE_LOOP('',(#285,#286,#287,#288));
#63=EDGE_LOOP('',(#289,#290,#291,#292));
#64=EDGE_LOOP('',(#293,#294,#295,#296));
#65=EDGE_LOOP('',(#297,#298,#299,#300));
#66=EDGE_LOOP('',(#301,#302,#303,#304));
#67=EDGE_LOOP('',(#305,#306,#307,#308));
#68=EDGE_LOOP('',(#309,#310,#311,#312,#313,#314,#315,#316,#317,#318,#319,
#320));
#69=LINE('',#511,#107);
#70=LINE('',#513,#108);
#71=LINE('',#515,#109);
#72=LINE('',#516,#110);
#73=LINE('',#519,#111);
#74=LINE('',#521,#112);
#75=LINE('',#522,#113);
#76=LINE('',#525,#114);
#77=LINE('',#527,#115);
#78=LINE('',#528,#116);
#79=LINE('',#530,#117);
#80=LINE('',#532,#118);
#81=LINE('',#538,#119);
#82=LINE('',#541,#120);
#83=LINE('',#544,#121);
#84=LINE('',#546,#122);
#85=LINE('',#547,#123);
#86=LINE('',#550,#124);
#87=LINE('',#552,#125);
#88=LINE('',#554,#126);
#89=LINE('',#558,#127);
#90=LINE('',#562,#128);
#91=LINE('',#566,#129);
#92=LINE('',#570,#130);
#93=LINE('',#574,#131);
#94=LINE('',#575,#132);
#95=LINE('',#580,#133);
#96=LINE('',#581,#134);
#97=LINE('',#584,#135);
#98=LINE('',#585,#136);
#99=LINE('',#589,#137);
#100=LINE('',#592,#138);
#101=LINE('',#593,#139);
#102=LINE('',#597,#140);
#103=LINE('',#599,#141);
#104=LINE('',#602,#142);
#105=LINE('',#603,#143);
#106=LINE('',#605,#144);
#107=VECTOR('',#413,10.);
#108=VECTOR('',#414,10.);
#109=VECTOR('',#415,10.);
#110=VECTOR('',#416,10.);
#111=VECTOR('',#419,10.);
#112=VECTOR('',#420,10.);
#113=VECTOR('',#421,10.);
#114=VECTOR('',#424,10.);
#115=VECTOR('',#425,10.);
#116=VECTOR('',#426,10.);
#117=VECTOR('',#429,10.);
#118=VECTOR('',#432,10.);
#119=VECTOR('',#437,10.);
#120=VECTOR('',#440,10.);
#121=VECTOR('',#443,10.);
#122=VECTOR('',#444,10.);
#123=VECTOR('',#445,10.);
#124=VECTOR('',#448,10.);
#125=VECTOR('',#449,10.);
#126=VECTOR('',#450,10.);
#127=VECTOR('',#453,10.);
#128=VECTOR('',#456,10.);
#129=VECTOR('',#459,10.);
#130=VECTOR('',#464,10.);
#131=VECTOR('',#469,10.);
#132=VECTOR('',#470,10.);
#133=VECTOR('',#475,10.);
#134=VECTOR('',#476,10.);
#135=VECTOR('',#479,10.);
#136=VECTOR('',#480,10.);
#137=VECTOR('',#485,10.);
#138=VECTOR('',#488,10.);
#139=VECTOR('',#489,10.);
#140=VECTOR('',#494,10.);
#141=VECTOR('',#497,10.);
#142=VECTOR('',#500,10.);
#143=VECTOR('',#501,10.);
#144=VECTOR('',#504,10.);
#145=VERTEX_POINT('',#509);
#146=VERTEX_POINT('',#510);
#147=VERTEX_POINT('',#512);
#148=VERTEX_POINT('',#514);
#149=VERTEX_POINT('',#518);
#150=VERTEX_POINT('',#520);
#151=VERTEX_POINT('',#524);
#152=VERTEX_POINT('',#526);
#153=VERTEX_POINT('',#534);
#154=VERTEX_POINT('',#535);
#155=VERTEX_POINT('',#537);
#156=VERTEX_POINT('',#539);
#157=VERTEX_POINT('',#543);
#158=VERTEX_POINT('',#545);
#159=VERTEX_POINT('',#549);
#160=VERTEX_POINT('',#551);
#161=VERTEX_POINT('',#553);
#162=VERTEX_POINT('',#555);
#163=VERTEX_POINT('',#557);
#164=VERTEX_POINT('',#559);
#165=VERTEX_POINT('',#561);
#166=VERTEX_POINT('',#563);
#167=VERTEX_POINT('',#565);
#168=VERTEX_POINT('',#569);
#169=VERTEX_POINT('',#573);
#170=VERTEX_POINT('',#577);
#171=VERTEX_POINT('',#578);
#172=VERTEX_POINT('',#583);
#173=VERTEX_POINT('',#587);
#174=VERTEX_POINT('',#591);
#175=VERTEX_POINT('',#595);
#176=VERTEX_POINT('',#601);
#177=EDGE_CURVE('',#145,#146,#69,.T.);
#178=EDGE_CURVE('',#147,#146,#70,.T.);
#179=EDGE_CURVE('',#147,#148,#71,.T.);
#180=EDGE_CURVE('',#145,#148,#72,.T.);
#181=EDGE_CURVE('',#146,#149,#73,.T.);
#182=EDGE_CURVE('',#150,#149,#74,.T.);
#183=EDGE_CURVE('',#150,#147,#75,.T.);
#184=EDGE_CURVE('',#149,#151,#76,.T.);
#185=EDGE_CURVE('',#152,#151,#77,.T.);
#186=EDGE_CURVE('',#152,#150,#78,.T.);
#187=EDGE_CURVE('',#148,#152,#79,.T.);
#188=EDGE_CURVE('',#151,#145,#80,.T.);
#189=EDGE_CURVE('',#153,#154,#15,.T.);
#190=EDGE_CURVE('',#154,#155,#81,.T.);
#191=EDGE_CURVE('',#155,#156,#16,.T.);
#192=EDGE_CURVE('',#156,#153,#82,.T.);
#193=EDGE_CURVE('',#156,#157,#83,.T.);
#194=EDGE_CURVE('',#158,#157,#84,.T.);
#195=EDGE_CURVE('',#158,#153,#85,.T.);
#196=EDGE_CURVE('',#159,#155,#86,.T.);
#197=EDGE_CURVE('',#160,#159,#87,.T.);
#198=EDGE_CURVE('',#161,#160,#88,.T.);
#199=EDGE_CURVE('',#162,#161,#17,.T.);
#200=EDGE_CURVE('',#163,#162,#89,.T.);
#201=EDGE_CURVE('',#164,#163,#18,.T.);
#202=EDGE_CURVE('',#165,#164,#90,.T.);
#203=EDGE_CURVE('',#166,#165,#19,.T.);
#204=EDGE_CURVE('',#167,#166,#91,.T.);
#205=EDGE_CURVE('',#157,#167,#20,.T.);
#206=EDGE_CURVE('',#167,#168,#92,.T.);
#207=EDGE_CURVE('',#168,#158,#21,.T.);
#208=EDGE_CURVE('',#169,#166,#93,.T.);
#209=EDGE_CURVE('',#169,#168,#94,.T.);
#210=EDGE_CURVE('',#170,#171,#22,.T.);
#211=EDGE_CURVE('',#171,#164,#95,.T.);
#212=EDGE_CURVE('',#163,#170,#96,.T.);
#213=EDGE_CURVE('',#172,#162,#97,.T.);
#214=EDGE_CURVE('',#172,#170,#98,.T.);
#215=EDGE_CURVE('',#173,#172,#23,.T.);
#216=EDGE_CURVE('',#161,#173,#99,.T.);
#217=EDGE_CURVE('',#160,#174,#100,.T.);
#218=EDGE_CURVE('',#174,#173,#101,.T.);
#219=EDGE_CURVE('',#175,#169,#24,.T.);
#220=EDGE_CURVE('',#165,#175,#102,.T.);
#221=EDGE_CURVE('',#171,#175,#103,.T.);
#222=EDGE_CURVE('',#154,#176,#104,.T.);
#223=EDGE_CURVE('',#159,#176,#105,.T.);
#224=EDGE_CURVE('',#176,#174,#106,.T.);
#225=ORIENTED_EDGE('',*,*,#177,.T.);
#226=ORIENTED_EDGE('',*,*,#178,.F.);
#227=ORIENTED_EDGE('',*,*,#179,.T.);
#228=ORIENTED_EDGE('',*,*,#180,.F.);
#229=ORIENTED_EDGE('',*,*,#181,.T.);
#230=ORIENTED_EDGE('',*,*,#182,.F.);
#231=ORIENTED_EDGE('',*,*,#183,.T.);
#232=ORIENTED_EDGE('',*,*,#178,.T.);
#233=ORIENTED_EDGE('',*,*,#184,.T.);
#234=ORIENTED_EDGE('',*,*,#185,.F.);
#235=ORIENTED_EDGE('',*,*,#186,.T.);
#236=ORIENTED_EDGE('',*,*,#182,.T.);
#237=ORIENTED_EDGE('',*,*,#186,.F.);
#238=ORIENTED_EDGE('',*,*,#187,.F.);
#239=ORIENTED_EDGE('',*,*,#179,.F.);
#240=ORIENTED_EDGE('',*,*,#183,.F.);
#241=ORIENTED_EDGE('',*,*,#184,.F.);
#242=ORIENTED_EDGE('',*,*,#181,.F.);
#243=ORIENTED_EDGE('',*,*,#177,.F.);
#244=ORIENTED_EDGE('',*,*,#188,.F.);
#245=ORIENTED_EDGE('',*,*,#189,.T.);
#246=ORIENTED_EDGE('',*,*,#190,.T.);
#247=ORIENTED_EDGE('',*,*,#191,.T.);
#248=ORIENTED_EDGE('',*,*,#192,.T.);
#249=ORIENTED_EDGE('',*,*,#192,.F.);
#250=ORIENTED_EDGE('',*,*,#193,.T.);
#251=ORIENTED_EDGE('',*,*,#194,.F.);
#252=ORIENTED_EDGE('',*,*,#195,.T.);
#253=ORIENTED_EDGE('',*,*,#191,.F.);
#254=ORIENTED_EDGE('',*,*,#196,.F.);
#255=ORIENTED_EDGE('',*,*,#197,.F.);
#256=ORIENTED_EDGE('',*,*,#198,.F.);
#257=ORIENTED_EDGE('',*,*,#199,.F.);
#258=ORIENTED_EDGE('',*,*,#200,.F.);
#259=ORIENTED_EDGE('',*,*,#201,.F.);
#260=ORIENTED_EDGE('',*,*,#202,.F.);
#261=ORIENTED_EDGE('',*,*,#203,.F.);
#262=ORIENTED_EDGE('',*,*,#204,.F.);
#263=ORIENTED_EDGE('',*,*,#205,.F.);
#264=ORIENTED_EDGE('',*,*,#193,.F.);
#265=ORIENTED_EDGE('',*,*,#205,.T.);
#266=ORIENTED_EDGE('',*,*,#206,.T.);
#267=ORIENTED_EDGE('',*,*,#207,.T.);
#268=ORIENTED_EDGE('',*,*,#194,.T.);
#269=ORIENTED_EDGE('',*,*,#206,.F.);
#270=ORIENTED_EDGE('',*,*,#204,.T.);
#271=ORIENTED_EDGE('',*,*,#208,.F.);
#272=ORIENTED_EDGE('',*,*,#209,.T.);
#273=ORIENTED_EDGE('',*,*,#210,.T.);
#274=ORIENTED_EDGE('',*,*,#211,.T.);
#275=ORIENTED_EDGE('',*,*,#201,.T.);
#276=ORIENTED_EDGE('',*,*,#212,.T.);
#277=ORIENTED_EDGE('',*,*,#212,.F.);
#278=ORIENTED_EDGE('',*,*,#200,.T.);
#279=ORIENTED_EDGE('',*,*,#213,.F.);
#280=ORIENTED_EDGE('',*,*,#214,.T.);
#281=ORIENTED_EDGE('',*,*,#185,.T.);
#282=ORIENTED_EDGE('',*,*,#188,.T.);
#283=ORIENTED_EDGE('',*,*,#180,.T.);
#284=ORIENTED_EDGE('',*,*,#187,.T.);
#285=ORIENTED_EDGE('',*,*,#215,.T.);
#286=ORIENTED_EDGE('',*,*,#213,.T.);
#287=ORIENTED_EDGE('',*,*,#199,.T.);
#288=ORIENTED_EDGE('',*,*,#216,.T.);
#289=ORIENTED_EDGE('',*,*,#216,.F.);
#290=ORIENTED_EDGE('',*,*,#198,.T.);
#291=ORIENTED_EDGE('',*,*,#217,.T.);
#292=ORIENTED_EDGE('',*,*,#218,.T.);
#293=ORIENTED_EDGE('',*,*,#219,.T.);
#294=ORIENTED_EDGE('',*,*,#208,.T.);
#295=ORIENTED_EDGE('',*,*,#203,.T.);
#296=ORIENTED_EDGE('',*,*,#220,.T.);
#297=ORIENTED_EDGE('',*,*,#211,.F.);
#298=ORIENTED_EDGE('',*,*,#221,.T.);
#299=ORIENTED_EDGE('',*,*,#220,.F.);
#300=ORIENTED_EDGE('',*,*,#202,.T.);
#301=ORIENTED_EDGE('',*,*,#190,.F.);
#302=ORIENTED_EDGE('',*,*,#222,.T.);
#303=ORIENTED_EDGE('',*,*,#223,.F.);
#304=ORIENTED_EDGE('',*,*,#196,.T.);
#305=ORIENTED_EDGE('',*,*,#224,.T.);
#306=ORIENTED_EDGE('',*,*,#217,.F.);
#307=ORIENTED_EDGE('',*,*,#197,.T.);
#308=ORIENTED_EDGE('',*,*,#223,.T.);
#309=ORIENTED_EDGE('',*,*,#189,.F.);
#310=ORIENTED_EDGE('',*,*,#195,.F.);
#311=ORIENTED_EDGE('',*,*,#207,.F.);
#312=ORIENTED_EDGE('',*,*,#209,.F.);
#313=ORIENTED_EDGE('',*,*,#219,.F.);
#314=ORIENTED_EDGE('',*,*,#221,.F.);
#315=ORIENTED_EDGE('',*,*,#210,.F.);
#316=ORIENTED_EDGE('',*,*,#214,.F.);
#317=ORIENTED_EDGE('',*,*,#215,.F.);
#318=ORIENTED_EDGE('',*,*,#218,.F.);
#319=ORIENTED_EDGE('',*,*,#224,.F.);
#320=ORIENTED_EDGE('',*,*,#222,.F.);
#321=PLANE('',#380);
#322=PLANE('',#381);
#323=PLANE('',#382);
#324=PLANE('',#383);
#325=PLANE('',#384);
#326=PLANE('',#388);
#327=PLANE('',#389);
#328=PLANE('',#396);
#329=PLANE('',#399);
#330=PLANE('',#402);
#331=PLANE('',#405);
#332=PLANE('',#406);
#333=PLANE('',#407);
#334=PLANE('',#408);
#335=STYLED_ITEM('',(#627),#341);
#336=STYLED_ITEM('',(#627),#342);
#337=STYLED_ITEM('',(#627),#343);
#338=STYLED_ITEM('',(#627),#344);
#339=STYLED_ITEM('',(#627),#345);
#340=STYLED_ITEM('',(#626),#13);
#341=ADVANCED_FACE('',(#30),#321,.T.);
#342=ADVANCED_FACE('',(#31),#322,.T.);
#343=ADVANCED_FACE('',(#32),#323,.T.);
#344=ADVANCED_FACE('',(#33),#324,.T.);
#345=ADVANCED_FACE('',(#34),#325,.T.);
#346=ADVANCED_FACE('',(#35),#25,.T.);
#347=ADVANCED_FACE('',(#36),#326,.T.);
#348=ADVANCED_FACE('',(#37),#327,.F.);
#349=ADVANCED_FACE('',(#38),#26,.F.);
#350=ADVANCED_FACE('',(#39),#328,.T.);
#351=ADVANCED_FACE('',(#40),#27,.T.);
#352=ADVANCED_FACE('',(#41,#14),#329,.T.);
#353=ADVANCED_FACE('',(#42),#28,.T.);
#354=ADVANCED_FACE('',(#43),#330,.T.);
#355=ADVANCED_FACE('',(#44),#29,.T.);
#356=ADVANCED_FACE('',(#45),#331,.T.);
#357=ADVANCED_FACE('',(#46),#332,.T.);
#358=ADVANCED_FACE('',(#47),#333,.T.);
#359=ADVANCED_FACE('',(#48),#334,.T.);
#360=CLOSED_SHELL('',(#341,#342,#343,#344,#345,#346,#347,#348,#349,#350,
#351,#352,#353,#354,#355,#356,#357,#358,#359));
#361=DERIVED_UNIT_ELEMENT(#363,1.);
#362=DERIVED_UNIT_ELEMENT(#612,3.);
#363=(
MASS_UNIT()
NAMED_UNIT(*)
SI_UNIT($,.GRAM.)
);
#364=DERIVED_UNIT((#361,#362));
#365=MEASURE_REPRESENTATION_ITEM('density measure',
POSITIVE_RATIO_MEASURE(1.),#364);
#366=PROPERTY_DEFINITION_REPRESENTATION(#371,#368);
#367=PROPERTY_DEFINITION_REPRESENTATION(#372,#369);
#368=REPRESENTATION('material name',(#370),#609);
#369=REPRESENTATION('density',(#365),#609);
#370=DESCRIPTIVE_REPRESENTATION_ITEM('G\X\E9n\X\E9rique','G\X\E9n\X\E9
rique');
#371=PROPERTY_DEFINITION('material property','material name',#619);
#372=PROPERTY_DEFINITION('material property','density of part',#619);
#373=DATE_TIME_ROLE('creation_date');
#374=APPLIED_DATE_AND_TIME_ASSIGNMENT(#375,#373,(#619));
#375=DATE_AND_TIME(#376,#377);
#376=CALENDAR_DATE(2007,13,6);
#377=LOCAL_TIME(14,5,12.,#378);
#378=COORDINATED_UNIVERSAL_TIME_OFFSET(0,0,.BEHIND.);
#379=AXIS2_PLACEMENT_3D('placement',#507,#409,#410);
#380=AXIS2_PLACEMENT_3D('',#508,#411,#412);
#381=AXIS2_PLACEMENT_3D('',#517,#417,#418);
#382=AXIS2_PLACEMENT_3D('',#523,#422,#423);
#383=AXIS2_PLACEMENT_3D('',#529,#427,#428);
#384=AXIS2_PLACEMENT_3D('',#531,#430,#431);
#385=AXIS2_PLACEMENT_3D('',#533,#433,#434);
#386=AXIS2_PLACEMENT_3D('',#536,#435,#436);
#387=AXIS2_PLACEMENT_3D('',#540,#438,#439);
#388=AXIS2_PLACEMENT_3D('',#542,#441,#442);
#389=AXIS2_PLACEMENT_3D('',#548,#446,#447);
#390=AXIS2_PLACEMENT_3D('',#556,#451,#452);
#391=AXIS2_PLACEMENT_3D('',#560,#454,#455);
#392=AXIS2_PLACEMENT_3D('',#564,#457,#458);
#393=AXIS2_PLACEMENT_3D('',#567,#460,#461);
#394=AXIS2_PLACEMENT_3D('',#568,#462,#463);
#395=AXIS2_PLACEMENT_3D('',#571,#465,#466);
#396=AXIS2_PLACEMENT_3D('',#572,#467,#468);
#397=AXIS2_PLACEMENT_3D('',#576,#471,#472);
#398=AXIS2_PLACEMENT_3D('',#579,#473,#474);
#399=AXIS2_PLACEMENT_3D('',#582,#477,#478);
#400=AXIS2_PLACEMENT_3D('',#586,#481,#482);
#401=AXIS2_PLACEMENT_3D('',#588,#483,#484);
#402=AXIS2_PLACEMENT_3D('',#590,#486,#487);
#403=AXIS2_PLACEMENT_3D('',#594,#490,#491);
#404=AXIS2_PLACEMENT_3D('',#596,#492,#493);
#405=AXIS2_PLACEMENT_3D('',#598,#495,#496);
#406=AXIS2_PLACEMENT_3D('',#600,#498,#499);
#407=AXIS2_PLACEMENT_3D('',#604,#502,#503);
#408=AXIS2_PLACEMENT_3D('',#606,#505,#506);
#409=DIRECTION('axis',(0.,0.,1.));
#410=DIRECTION('refdir',(1.,0.,0.));
#411=DIRECTION('center_axis',(-0.999044340425501,0.,0.0437081898936157));
#412=DIRECTION('ref_axis',(0.0437081898936157,0.,0.999044340425501));
#413=DIRECTION('',(-0.0437081898936157,0.,-0.999044340425501));
#414=DIRECTION('',(0.,1.,0.));
#415=DIRECTION('',(0.0437081898936157,0.,0.999044340425501));
#416=DIRECTION('',(0.,-1.,0.));
#417=DIRECTION('center_axis',(0.,0.,-1.));
#418=DIRECTION('ref_axis',(-1.,0.,0.));
#419=DIRECTION('',(1.,0.,0.));
#420=DIRECTION('',(0.,1.,0.));
#421=DIRECTION('',(-1.,0.,0.));
#422=DIRECTION('center_axis',(0.999044340425501,0.,0.0437081898936157));
#423=DIRECTION('ref_axis',(0.0437081898936157,0.,-0.999044340425501));
#424=DIRECTION('',(-0.0437081898936157,0.,0.999044340425501));
#425=DIRECTION('',(0.,1.,0.));
#426=DIRECTION('',(0.0437081898936157,0.,-0.999044340425501));
#427=DIRECTION('center_axis',(0.,-1.,0.));
#428=DIRECTION('ref_axis',(0.,0.,-1.));
#429=DIRECTION('',(1.,0.,0.));
#430=DIRECTION('center_axis',(0.,1.,0.));
#431=DIRECTION('ref_axis',(0.,0.,1.));
#432=DIRECTION('',(-1.,0.,0.));
#433=DIRECTION('center_axis',(0.,1.,0.));
#434=DIRECTION('ref_axis',(0.707106781186548,0.,0.707106781186547));
#435=DIRECTION('center_axis',(0.,-1.,0.));
#436=DIRECTION('ref_axis',(0.707106781186548,0.,0.707106781186547));
#437=DIRECTION('',(0.,-1.,0.));
#438=DIRECTION('center_axis',(0.,1.,0.));
#439=DIRECTION('ref_axis',(0.707106781186548,0.,0.707106781186547));
#440=DIRECTION('',(0.,1.,0.));
#441=DIRECTION('center_axis',(1.,0.,-1.46081976924363E-17));
#442=DIRECTION('ref_axis',(-1.46081976924363E-17,0.,-1.));
#443=DIRECTION('',(-1.46081976924363E-17,0.,-1.));
#444=DIRECTION('',(0.,-1.,0.));
#445=DIRECTION('',(1.46081976924363E-17,0.,1.));
#446=DIRECTION('center_axis',(0.,1.,0.));
#447=DIRECTION('ref_axis',(0.,0.,1.));
#448=DIRECTION('',(1.,0.,-1.5065052009429E-30));
#449=DIRECTION('',(0.,0.,1.));
#450=DIRECTION('',(-0.107703168683394,0.,0.994183095539024));
#451=DIRECTION('center_axis',(0.,1.,0.));
#452=DIRECTION('ref_axis',(-0.667943422497969,0.,-0.744212056030873));
#453=DIRECTION('',(-1.,0.,0.));
#454=DIRECTION('center_axis',(0.,1.,0.));
#455=DIRECTION('ref_axis',(0.667943422497969,0.,-0.744212056030873));
#456=DIRECTION('',(-0.107703168683394,0.,-0.994183095539024));
#457=DIRECTION('center_axis',(0.,1.,0.));
#458=DIRECTION('ref_axis',(0.744212056030874,0.,0.667943422497969));
#459=DIRECTION('',(1.,0.,0.));
#460=DIRECTION('center_axis',(0.,-1.,0.));
#461=DIRECTION('ref_axis',(-0.707106781186546,0.,-0.707106781186549));
#462=DIRECTION('center_axis',(0.,1.,0.));
#463=DIRECTION('ref_axis',(-0.707106781186546,0.,-0.707106781186549));
#464=DIRECTION('',(0.,1.,0.));
#465=DIRECTION('center_axis',(0.,1.,0.));
#466=DIRECTION('ref_axis',(-0.707106781186546,0.,-0.707106781186549));
#467=DIRECTION('center_axis',(0.,0.,1.));
#468=DIRECTION('ref_axis',(1.,0.,0.));
#469=DIRECTION('',(0.,-1.,0.));
#470=DIRECTION('',(-1.,0.,0.));
#471=DIRECTION('center_axis',(0.,1.,0.));
#472=DIRECTION('ref_axis',(0.667943422497969,0.,-0.744212056030873));
#473=DIRECTION('center_axis',(0.,-1.,0.));
#474=DIRECTION('ref_axis',(0.667943422497969,0.,-0.744212056030873));
#475=DIRECTION('',(0.,-1.,0.));
#476=DIRECTION('',(0.,1.,0.));
#477=DIRECTION('center_axis',(0.,0.,-1.));
#478=DIRECTION('ref_axis',(-1.,0.,0.));
#479=DIRECTION('',(0.,-1.,0.));
#480=DIRECTION('',(1.,0.,0.));
#481=DIRECTION('center_axis',(0.,1.,0.));
#482=DIRECTION('ref_axis',(-0.667943422497969,0.,-0.744212056030873));
#483=DIRECTION('center_axis',(0.,-1.,0.));
#484=DIRECTION('ref_axis',(-0.667943422497969,0.,-0.744212056030873));
#485=DIRECTION('',(0.,1.,0.));
#486=DIRECTION('center_axis',(-0.994183095539024,0.,-0.107703168683394));
#487=DIRECTION('ref_axis',(-0.107703168683394,0.,0.994183095539024));
#488=DIRECTION('',(0.,1.,0.));
#489=DIRECTION('',(0.107703168683394,0.,-0.994183095539024));
#490=DIRECTION('center_axis',(0.,1.,0.));
#491=DIRECTION('ref_axis',(0.744212056030874,0.,0.667943422497969));
#492=DIRECTION('center_axis',(0.,-1.,0.));
#493=DIRECTION('ref_axis',(0.744212056030874,0.,0.667943422497969));
#494=DIRECTION('',(0.,1.,0.));
#495=DIRECTION('center_axis',(0.994183095539024,0.,-0.107703168683394));
#496=DIRECTION('ref_axis',(-0.107703168683394,0.,-0.994183095539024));
#497=DIRECTION('',(0.107703168683394,0.,0.994183095539024));
#498=DIRECTION('center_axis',(1.5065052009429E-30,0.,1.));
#499=DIRECTION('ref_axis',(1.,0.,-1.5065052009429E-30));
#500=DIRECTION('',(-1.,0.,1.5065052009429E-30));
#501=DIRECTION('',(0.,1.,0.));
#502=DIRECTION('center_axis',(-1.,0.,0.));
#503=DIRECTION('ref_axis',(0.,0.,1.));
#504=DIRECTION('',(0.,0.,-1.));
#505=DIRECTION('center_axis',(0.,1.,0.));
#506=DIRECTION('ref_axis',(0.,0.,1.));
#507=CARTESIAN_POINT('',(0.,0.,0.));
#508=CARTESIAN_POINT('Origin',(4.55,0.,-50.));
#509=CARTESIAN_POINT('',(4.55,2999.,-50.));
#510=CARTESIAN_POINT('',(2.8,2999.,-90.));
#511=CARTESIAN_POINT('',(4.11500740769621,2999.,-59.9426878240867));
#512=CARTESIAN_POINT('',(2.8,1.,-90.));
#513=CARTESIAN_POINT('',(2.8,0.,-90.));
#514=CARTESIAN_POINT('',(4.55,1.,-50.));
#515=CARTESIAN_POINT('',(4.11500740769621,1.,-59.9426878240867));
#516=CARTESIAN_POINT('',(4.55,0.,-50.));
#517=CARTESIAN_POINT('Origin',(2.8,0.,-90.));
#518=CARTESIAN_POINT('',(9.8,2999.,-90.));
#519=CARTESIAN_POINT('',(4.55,2999.,-90.));
#520=CARTESIAN_POINT('',(9.8,1.,-90.));
#521=CARTESIAN_POINT('',(9.8,0.,-90.));
#522=CARTESIAN_POINT('',(4.55,1.,-90.));
#523=CARTESIAN_POINT('Origin',(9.8,0.,-90.));
#524=CARTESIAN_POINT('',(8.05,2999.,-50.));
#525=CARTESIAN_POINT('',(9.35999259230379,2999.,-79.9426878240867));
#526=CARTESIAN_POINT('',(8.05,1.,-50.));
#527=CARTESIAN_POINT('',(8.05,0.,-50.));
#528=CARTESIAN_POINT('',(9.35999259230379,1.,-79.9426878240867));
#529=CARTESIAN_POINT('Origin',(6.3,1.,-70.));
#530=CARTESIAN_POINT('',(3.8,1.,-50.));
#531=CARTESIAN_POINT('Origin',(6.3,2999.,-70.));
#532=CARTESIAN_POINT('',(3.8,2999.,-50.));
#533=CARTESIAN_POINT('Origin',(0.3,0.,-1.5));
#534=CARTESIAN_POINT('',(1.8,3000.,-1.5));
#535=CARTESIAN_POINT('',(0.3,3000.,-4.51951560282872E-31));
#536=CARTESIAN_POINT('Origin',(0.3,3000.,-1.5));
#537=CARTESIAN_POINT('',(0.3,0.,-4.51951560282872E-31));
#538=CARTESIAN_POINT('',(0.3,0.,0.));
#539=CARTESIAN_POINT('',(1.8,0.,-1.5));
#540=CARTESIAN_POINT('Origin',(0.3,0.,-1.5));
#541=CARTESIAN_POINT('',(1.8,0.,-1.5));
#542=CARTESIAN_POINT('Origin',(1.8,0.,-38.));
#543=CARTESIAN_POINT('',(1.8,0.,-37.));
#544=CARTESIAN_POINT('',(1.8,0.,-2.71170936169723E-30));
#545=CARTESIAN_POINT('',(1.8,3000.,-37.));
#546=CARTESIAN_POINT('',(1.8,0.,-37.));
#547=CARTESIAN_POINT('',(1.8,3000.,-2.71170936169723E-30));
#548=CARTESIAN_POINT('Origin',(2.95635825968718,0.,-27.8358060117431));
#549=CARTESIAN_POINT('',(0.,0.,0.));
#550=CARTESIAN_POINT('',(0.,0.,0.));
#551=CARTESIAN_POINT('',(0.,0.,-38.));
#552=CARTESIAN_POINT('',(0.,0.,-38.));
#553=CARTESIAN_POINT('',(1.2033345099407,0.,-49.1077031686834));
#554=CARTESIAN_POINT('',(1.3,0.,-50.));
#555=CARTESIAN_POINT('',(2.19751760547973,0.,-50.));
#556=CARTESIAN_POINT('Origin',(2.19751760547973,0.,-49.));
#557=CARTESIAN_POINT('',(10.4024823945203,0.,-50.));
#558=CARTESIAN_POINT('',(11.3,0.,-50.));
#559=CARTESIAN_POINT('',(11.3966654900593,0.,-49.1077031686834));
#560=CARTESIAN_POINT('Origin',(10.4024823945203,0.,-49.));
#561=CARTESIAN_POINT('',(12.4799988233926,0.,-39.1077031686834));
#562=CARTESIAN_POINT('',(12.6,0.,-38.));
#563=CARTESIAN_POINT('',(11.4858157278536,0.,-38.));
#564=CARTESIAN_POINT('Origin',(11.4858157278536,0.,-39.));
#565=CARTESIAN_POINT('',(2.8,0.,-38.));
#566=CARTESIAN_POINT('',(1.8,0.,-38.));
#567=CARTESIAN_POINT('Origin',(2.8,0.,-37.));
#568=CARTESIAN_POINT('Origin',(2.8,0.,-37.));
#569=CARTESIAN_POINT('',(2.8,3000.,-38.));
#570=CARTESIAN_POINT('',(2.8,0.,-38.));
#571=CARTESIAN_POINT('Origin',(2.8,3000.,-37.));
#572=CARTESIAN_POINT('Origin',(12.6,0.,-38.));
#573=CARTESIAN_POINT('',(11.4858157278536,3000.,-38.));
#574=CARTESIAN_POINT('',(11.4858157278536,0.,-38.));
#575=CARTESIAN_POINT('',(1.8,3000.,-38.));
#576=CARTESIAN_POINT('Origin',(10.4024823945203,0.,-49.));
#577=CARTESIAN_POINT('',(10.4024823945203,3000.,-50.));
#578=CARTESIAN_POINT('',(11.3966654900593,3000.,-49.1077031686834));
#579=CARTESIAN_POINT('Origin',(10.4024823945203,3000.,-49.));
#580=CARTESIAN_POINT('',(11.3966654900593,0.,-49.1077031686834));
#581=CARTESIAN_POINT('',(10.4024823945203,0.,-50.));
#582=CARTESIAN_POINT('Origin',(1.3,0.,-50.));
#583=CARTESIAN_POINT('',(2.19751760547973,3000.,-50.));
#584=CARTESIAN_POINT('',(2.19751760547973,0.,-50.));
#585=CARTESIAN_POINT('',(11.3,3000.,-50.));
#586=CARTESIAN_POINT('Origin',(2.19751760547973,0.,-49.));
#587=CARTESIAN_POINT('',(1.2033345099407,3000.,-49.1077031686834));
#588=CARTESIAN_POINT('Origin',(2.19751760547973,3000.,-49.));
#589=CARTESIAN_POINT('',(1.2033345099407,0.,-49.1077031686834));
#590=CARTESIAN_POINT('Origin',(0.,0.,-38.));
#591=CARTESIAN_POINT('',(0.,3000.,-38.));
#592=CARTESIAN_POINT('',(0.,0.,-38.));
#593=CARTESIAN_POINT('',(1.3,3000.,-50.));
#594=CARTESIAN_POINT('Origin',(11.4858157278536,0.,-39.));
#595=CARTESIAN_POINT('',(12.4799988233926,3000.,-39.1077031686834));
#596=CARTESIAN_POINT('Origin',(11.4858157278536,3000.,-39.));
#597=CARTESIAN_POINT('',(12.4799988233926,0.,-39.1077031686834));
#598=CARTESIAN_POINT('Origin',(11.3,0.,-50.));
#599=CARTESIAN_POINT('',(12.6,3000.,-38.));
#600=CARTESIAN_POINT('Origin',(1.8,0.,-2.71170936169723E-30));
#601=CARTESIAN_POINT('',(0.,3000.,0.));
#602=CARTESIAN_POINT('',(0.,3000.,0.));
#603=CARTESIAN_POINT('',(0.,0.,0.));
#604=CARTESIAN_POINT('Origin',(0.,0.,0.));
#605=CARTESIAN_POINT('',(0.,3000.,-38.));
#606=CARTESIAN_POINT('Origin',(2.95635825968718,3000.,-27.8358060117431));
#607=UNCERTAINTY_MEASURE_WITH_UNIT(LENGTH_MEASURE(0.01),#611,
'DISTANCE_ACCURACY_VALUE',
'Maximum model space distance between geometric entities at asserted c
onnectivities');
#608=UNCERTAINTY_MEASURE_WITH_UNIT(LENGTH_MEASURE(0.01),#611,
'DISTANCE_ACCURACY_VALUE',
'Maximum model space distance between geometric entities at asserted c
onnectivities');
#609=(
GEOMETRIC_REPRESENTATION_CONTEXT(3)
GLOBAL_UNCERTAINTY_ASSIGNED_CONTEXT((#607))
GLOBAL_UNIT_ASSIGNED_CONTEXT((#611,#613,#614))
REPRESENTATION_CONTEXT('','3D')
);
#610=(
GEOMETRIC_REPRESENTATION_CONTEXT(3)
GLOBAL_UNCERTAINTY_ASSIGNED_CONTEXT((#608))
GLOBAL_UNIT_ASSIGNED_CONTEXT((#611,#613,#614))
REPRESENTATION_CONTEXT('','3D')
);
#611=(
LENGTH_UNIT()
NAMED_UNIT(*)
SI_UNIT(.MILLI.,.METRE.)
);
#612=(
LENGTH_UNIT()
NAMED_UNIT(*)
SI_UNIT(.CENTI.,.METRE.)
);
#613=(
NAMED_UNIT(*)
PLANE_ANGLE_UNIT()
SI_UNIT($,.RADIAN.)
);
#614=(
NAMED_UNIT(*)
SI_UNIT($,.STERADIAN.)
SOLID_ANGLE_UNIT()
);
#615=SHAPE_DEFINITION_REPRESENTATION(#616,#617);
#616=PRODUCT_DEFINITION_SHAPE('',$,#619);
#617=SHAPE_REPRESENTATION('',(#379),#609);
#618=PRODUCT_DEFINITION_CONTEXT('part definition',#623,'design');
#619=PRODUCT_DEFINITION('20853','20853',#620,#618);
#620=PRODUCT_DEFINITION_FORMATION('',$,#625);
#621=PRODUCT_RELATED_PRODUCT_CATEGORY('20853','20853',(#625));
#622=APPLICATION_PROTOCOL_DEFINITION('international standard',
'automotive_design',2009,#623);
#623=APPLICATION_CONTEXT(
'Core Data for Automotive Mechanical Design Process');
#624=PRODUCT_CONTEXT('part definition',#623,'mechanical');
#625=PRODUCT('20853','20853',$,(#624));
#626=PRESENTATION_STYLE_ASSIGNMENT((#628));
#627=PRESENTATION_STYLE_ASSIGNMENT((#629));
#628=SURFACE_STYLE_USAGE(.BOTH.,#634);
#629=SURFACE_STYLE_USAGE(.BOTH.,#635);
#630=SURFACE_STYLE_RENDERING_WITH_PROPERTIES($,#642,(#632));
#631=SURFACE_STYLE_RENDERING_WITH_PROPERTIES($,#643,(#633));
#632=SURFACE_STYLE_TRANSPARENT(0.);
#633=SURFACE_STYLE_TRANSPARENT(0.);
#634=SURFACE_SIDE_STYLE('',(#636,#630));
#635=SURFACE_SIDE_STYLE('',(#637,#631));
#636=SURFACE_STYLE_FILL_AREA(#638);
#637=SURFACE_STYLE_FILL_AREA(#639);
#638=FILL_AREA_STYLE('',(#640));
#639=FILL_AREA_STYLE('',(#641));
#640=FILL_AREA_STYLE_COLOUR('',#642);
#641=FILL_AREA_STYLE_COLOUR('',#643);
#642=COLOUR_RGB('',0.752941176470588,0.752941176470588,0.752941176470588);
#643=COLOUR_RGB('',0.32156862745098,0.32156862745098,0.32156862745098);
ENDSEC;
END-ISO-10303-21;
